» » »

Rainforest Tabs (ver.1)

Artists:  A B C D E F G H I J K L M N O P Q R S T U V W X Y Z # 

Rainforest Tabs (ver.1)

Washya
Rating:
0/5 (0 votes)

Tabs too difficult? Try these video lessons and learn fast.
                			     Rainforest - Washya

Tuning:

e|--------------------------------------------------------------------------|
B|------8-------------------------------------------------------------------|
G|-9-9~---9-7---7h9p7h9~-12-10----10-----------------12-14-15-14-12----12-14|
D|------------9----------------12----12-10-12~----13----------------14------|
A|---------------------------------------------14---------------------------|
E|--------------------------------------------------------------------------|


e|----------------------------------------------------------------5--------|
B|--------------------------------------------------------------5---0-------|
G|------------------------------------------------------------5-------0-----|
D|----10-9------------------------------------3h5h7---------7-----------2~--|
A|-12------10-9-9h10p9h10p9h10p9h10p9/7-5h7h9-------3h5h7-7-----------------|
E|--------------------------------------------------------------------------|



e|------------------------------------------0-------------------------------|
B|-------------------------3-2-0-----3-2-5~---1-----------------------------|
G|-----4--------2-2h4~-2h4-------2h4------------2-0-2-2-2~-5-3---3----------|
D|---4---4----4------------------------------------------------5---5-3-5----|
A|-2--------2---------------------------------------------------------------|
E|--------------------------------------------------------------------------|




e|------------------0-2-3-2-0---0---------------0---------0-----------------|
B|----------------3-----------3-------3---3-------3---------3---------------|
G|-----2-0-2~-2-4-----------------2h4---4---2h4-----4-2h4-----2-2-44-2-4----|
D|---2----------------------------------------------------------------------|
A|-0------------------------------------------------------------------------|
E|--------------------------------------------------------------------------|



e|-15-17-19-17-15----15-17-------------------------------------------0------|
B|----------------17-------15h17-------------------------------------0------|
G|------------------------------------------------12----12----12-14~-1------|
D|-------------------------------------15h17b-15~----14----14--------2------|
A|-------------------------------15h17-------------------------------2------|
E|-------------------------------------------------------------------0------|



e|-------------------------------------------------1-0--------------3---5---|
B|-------------------------------------1-0-------------1-0-1-3-5~-5---5-----|
G|-----------------------2-3-2-0---0-2-----2-0-2-4--------------------------|
D|-----------2-3-2-0---0-2-------3------------------------------------------|
A|-3-2-0---0-2-------3---0--------------------------------------------------|
E|-------3---0--------------------------------------------------------------|





e|-5p4p2h5/7-5----8p7p5h8/10-8----15p14p12h15p14p12h17p16p14/12h14~---------|
B|-------------5~--------------8~-------------------------------------------|
G|--------------------------------------------------------------------------|
D|--------------------------------------------------------------------------|
A|--------------------------------------------------------------------------|
E|--------------------------------------------------------------------------|




e|--------------------------------------------------------------------------|
B|----------------------------------------------------------------13--------|
G|----------------------------------------------12-------12-14-15----15-14--|
D|----------------------------12-------12-14-15----15-14--------------------|
A|----------12-------12-14-15----15-14--------------------------------------|
E|-12-14-15----15-14--------------------------------------------------------|



e|----------12----------13----13----14----14----15-14-12-10-12~-------------|
B|-12-14-15----15-14-12----12----12----12----12-----------------------------|
G|--------------------------------------------------------------------------|
D|--------------------------------------------------------------------------|
A|--------------------------------------------------------------------------|
E|--------------------------------------------------------------------------|
            
Tabs too difficult? Try these video lessons and learn fast.


comments powered by Disqus
↑ Back to top | Tablatures and chords are parodies/interpretations of the original songs. You may use it for private study, scholarship, research or language learning purposes only