» » »

Rainforest Bass tabs (ver.1)

Artists:  A B C D E F G H I J K L M N O P Q R S T U V W X Y Z # 

Rainforest Bass tabs (ver.1)

Washya
Rating:
0/5 (0 votes)

Hard to play? Try these video lessons and learn fast.
                Rainforest Bass Tab


Intro
G|--------------------------------------------------------------------------|
D|--------------------------------------------------------------------------|
A|-------------------------5-5-5-5-5-5--------------------------------------|
E|-0-0-0-0-0-0-3-3-3-3-3-3-------------1-1-1-1-1-1-1-3-3-3-3-3-3-3-8-8-8-8--|

Verses x2
G|---------------------------------------------------------------------|
D|---------------------------------------------------------------------|
A|-----------------------------4-4-5-5-3-------------------------------|
E|-0-0-0-0-2-2-2-3-3-2-3-1-2-3-----------3-3-5-5-6-6-6-3-3-2-2-1-------|

Outro
G|----------------------------------------------------------|
D|----------------------------------------------------------|
A|-----------------------------2-2-3-1-1-4-5----------------|
E|-0-0-0-0-5-5-5-3-3-3-1-1-2-2---------------8-8-8-1-0-0-0--|
            
Hard to play? Try these video lessons and learn fast. | Correct




comments powered by Disqus
↑ Back to top | Tablatures and chords are parodies/interpretations of the original songs. You may use it for private study, scholarship, research or language learning purposes only