» » »

Washya, Radical Destruction Tabs (ver.1)

Artists:  A B C D E F G H I J K L M N O P Q R S T U V W X Y Z # 

Radical Destruction Tabs (ver.1)

Washya Tabs
 Rating:
4/5 (4 votes)
Radical Destruction lessons Tabs too difficult? Try these video lessons and learn fast
1
                -----------------------------------------------------------------------------
-----------------------------------------------------------------------------
Tuning: D Tuning (D#A#F#C#G#D#)
Intro
D#|------------------------|
A#|------------------------|
F#|------------------------|
C#|-----7/6-7/6----5/4-5/4-|
G#|-----7/6-7/6----5/4-5/4-|
D#|-55555/4-5/4-3333/2-3/2-|
pm  ....        ...       

Verses (2nd and 4th time heavy palm mute) (Heavy distortion/Bass played in chugging style!!)
D#|-----------------------------------------------|
A#|-----------------------------------------------|
F#|-----------------------------------------------|
C#|-----------------------------------------------|
G#|-8-8-8-6-7-8-8-8-8-6-7-8-8-8-8-5-6-8-8-8-8-2-3-|
D#|-6-6-6-4-5-6-6-6-6-4-5-6-6-6-6-3-4-6-6-6-6-0-1-|

Chorus
D#|---------------------------------------------------------|
A#|---------------------------------------------------------|
F#|-5-5/9-9\8-8-------------4444-9999-----------------------|
C#|-x-x-x-x-x-x-------------xxxx-xxxx---------------101010\-|
G#|-3-3/7-7\6-6-66666-33333-2222-7777-7777-7-4444-4-8-8-8\--|
D#|-------------66666-33333-----------7777-7-4444-4---------|
            
Submit corrections

comments powered by Disqus
↑ Back to top | Washya Tabs for Radical Destruction. Lyrics for acoustic guitar and electric guitar. 1 Tablatures and chords are parodies/interpretations of the original songs. You may use it for private study, scholarship, research or language learning purposes only