» » »

Washya, Psycological Dependence Tabs (ver.1)

Artists:  A B C D E F G H I J K L M N O P Q R S T U V W X Y Z # 

Psycological Dependence Tabs (ver.1)

Washya Tabs
Rating:
0/5 (0 votes)
Psycological Dependence lessons Tabs too difficult? Try these video lessons and learn fast
                			     SONG NAME - Band Name

Tuning: Drop B (


B|--------------------------------------------------|
F#|-------------------------------------------------|
B|--------------------------------------------------|
E|--------------------------------------------------|
G#|-------------------------------------6-5-3-5-3-0-|
C#|-000-1b-0-1b-0-0-000-1b-0-1b-0-0-000-6-5-3-5-3-0-|
pm  ...             ...             ... 

Verses
B|-------------------------------------------------------------|
F#|------------------------------------------------------------|
B|-------------------------------------------------------------|
E|-------------------------------------------------------------|
G#|-----6/5---6/5-----6/5---6/5-----6/5---6/5-----6-5-3-5-3-0--|
C#|-000-6/5-0-6/5-000-6/5-0-6/5-000-6/5-0-6/5-000-6-5-3-5-3-0--|
pm  ...     .     ...     .     ...     .     ... 

Chorus
B|----------------------------------------------|
F#|---------------------------------------------|
B|----------------------------------------------|
E|----------------3333--------------------------|
G#|-66666666-1111-1111-1-3-6-555555-5-3-2-3-2-0-|
C#|-66666666-1111------1-3-6-555555-5-3-2-3-2-0-|

B|----------------------------------|
F#|---------------------------------|
B|----------------------------------|
E|----------------3333--------------|
G#|-666-3-5-3-1-0-1111-0-1-3-1-6-3--|
C#|-666-3-5-3-1-0------0-1-3-1-6-3--|

Verses
B|-------------------------------------------------------------|
F#|------------------------------------------------------------|
B|-------------------------------------------------------------|
E|-------------------------------------------------------------|
G#|-----6/5---6/5-----6/5---6/5-----6/5---6/5-----6-5-3-5-3-0--|
C#|-000-6/5-0-6/5-000-6/5-0-6/5-000-6/5-0-6/5-000-6-5-3-5-3-0--|
pm  ...     .     ...     .     ...     .     ... 
            

comments powered by Disqus
↑ Back to top | Washya Tabs for Psycological Dependence. Lyrics for acoustic guitar and electric guitar. Tablatures and chords are parodies/interpretations of the original songs. You may use it for private study, scholarship, research or language learning purposes only