» » »

Washya, Pshycological Perception Tabs (ver.1)

Artists:  A B C D E F G H I J K L M N O P Q R S T U V W X Y Z # 

Pshycological Perception Tabs (ver.1)

Washya Tabs
Rating:
0/5 (0 votes)
Pshycological Perception lessons Tabs too difficult? Try these video lessons and learn fast
                                      Phsycological Perception - Washya

Tuning: Drop b (BF#EBG#C#)
Intro
B|----------------------------------------------------------|
F#|---------------------------------------------------------|
E|----------------------------------------------------------|
B|----------------------------------------------------------|
G#|-222222320-222222320-222222320-222222320-222222320-32010-|
C#|-222222320-222222320-222222320-222222320-222222320-32010-|

Verses
B|-------------------------------------------|
F#|------------------------------------------|
E|-----------15~-----------18~-----------21b-|
B|----7b-10b-------10b-13b-------13b-16b-----|
G#|------------------------------------------|
C#|-0------------0-------------0-------------|
pm  .            .             . 

Chorus
B|---------------------------------------------------------|
F#|--------------------------------------------------------|
E|---------------------------------------------------------|
B|---------------------------------------------------------|
G#|-0-2-3-2-0-5-2-3-2-0-2-3-2-0-2-5-0-2-333-5-3-88888-10-7-|
C#|-0-2-3-2-0-5-2-3-2-0-2-3-2-0-2-5-0-2-333-5-3-88888-10-7-|
            

comments powered by Disqus
↑ Back to top | Washya Tabs for Pshycological Perception. Lyrics for acoustic guitar and electric guitar. Tablatures and chords are parodies/interpretations of the original songs. You may use it for private study, scholarship, research or language learning purposes only