» » »

Protector Tabs (ver.1)

Artists:  A B C D E F G H I J K L M N O P Q R S T U V W X Y Z # 

Protector Tabs (ver.1)

Washya
Rating:
0/5 (0 votes)

Hard to play? Try these video lessons and learn fast.
                -------------------------------------------------------------------------------
-------------------------------------------------------------------------------
Tuning: D Standard (DAFGCD)
Intro
D|-------------------------|
A|-------------------------|
F|---------------------9b~-|
C|----------4-3------------|
G|----6-5----------8-7-----|
D|-3~-----2-----5~---------|

Verses
D|--------------------------------------------------------|
A|--------------------------------------------------------|
F|--------------------------------------------------------|
C|--------------------------------------------------------|
G|-3-3-3-333-33-3-3-3-3-33-2-2-2-222-22-2-2-22-2-2-33-3-5-|
D|-1-1-1-111-11-1-1-1-1-11-0-0-0-000-00-0-0-00-0-0-11-1-3-|
pm . . . ... .. . . . . .. . . . ... .. . . .. . . .. . . 

Chorus
D|-----------------------------------------------------|
A|------------11~-------------------------15~----------|
F|----7h8p7-------------------11h12p11-----------------|
C|----------9--------------------------13--------------|
G|-2---------------5-4-3-2--2----------------5-4-3-222-|
D|-0---------------3-2-1-0--0----------------3-2-1-000-|
pm .                     .  .                      ... 
            
Hard to play? Try these video lessons and learn fast. | Correct




comments powered by Disqus
↑ Back to top | Tablatures and chords are parodies/interpretations of the original songs. You may use it for private study, scholarship, research or language learning purposes only