» » »

Pound For Pound Tabs (ver.1)

Artists:  A B C D E F G H I J K L M N O P Q R S T U V W X Y Z # 

Pound For Pound Tabs (ver.1)

Washya
Rating:
0/5 (0 votes)

Hard to play? Try these video lessons and learn fast.
                -----------------------------------------------------------------------------
-----------------------------------------------------------------------------
Tuning: Drop D (DADGBE)
Intro
E|--------------------------------------------------------------------------|
B|--------------------------------------------------------------------------|
G|--------------------------------------------------------------------------|
D|--------------------------------------4-----2-----------------------------|
A|------------------------------------5---2-5---5-4-2-----------------------|
D|-\\xx-0-0-0-0-0-0-0-0-0-0-0-0-0-0-0-----------------0-0-0-0-0-0-0-0-0-0-0-|
PM      * * * * * * * * * * * * * * *                 * * * * * * * * * * * 

E|---------------------------------------------|
B|---------------------------------------------|
G|---------------2-----------------------------|
D|---------5-2-------2-------------------------|
A|-------------4---4---5-4-2---------------1-3-|
D|-0-0-0-0-------------------5-6-5-0-0-0-0-1-3-|
PM * * * *                         * * * * 

Verses
E|-------------------------------------------------------------------|
B|-------------------------------8-----------------------------11----|
G|-------------------------9-------9------------------12----------12-|
D|---------------------------9---------------------------12----------|
A|-----------------------------7----------------------------10-------|
D|-2-2-22-22-2-2-22-2-2-22-----------22-2-2-22-2-2-22----------------|
PM * * ** ** * * ** * * **           ** * * ** * * ** 


Chorus
E|----------------------------------------------------------------------|
B|----------------------------------------------------------------------|
G|-------------------------------------------------------------------7~-|
D|-----8---------------------------9-----------------------------3h5----|
A|-5h6---5h6-888-55-666-55-666-6h7---6h7-777-44-555-44-555-3h5h6--------|
D|-----------888-55-666-55-666-----------777-44-555-44-555--------------|
            
Hard to play? Try these video lessons and learn fast. | Correct




comments powered by Disqus
↑ Back to top | Tablatures and chords are parodies/interpretations of the original songs. You may use it for private study, scholarship, research or language learning purposes only