» » »

Washya, Poison Running Through Your Veins Tabs (ver.1)

Artists:  A B C D E F G H I J K L M N O P Q R S T U V W X Y Z # 

Poison Running Through Your Veins Tabs (ver.1)

Washya Tabs
 Rating:
4/5 (4 votes)
Poison Running Through Your Veins lessons Tabs too difficult? Try these video lessons and learn fast
                
Tuning: Drop C
Intro
F|-----2---------2---------3-------0-------3-----------------0---|
A|---3---3-----3---3-----3---3---0---3---2---0-------3-2---1-----|
D|-0-------2-0-------0-2-------0-------2-------2---2-----3-------|
C|---------------------------------------------------------------|
G|-----------------------------------------------0---------------|
C|---------------------------------------------------------------|

Main Riff/Chorus
F|-------------------3-2-------------------0---------------3-------0--|
A|-----------------0-----2---------------5---0---0-3---3-3---2---1----|
D|-------0-3-2---5---------3-2---------7-------0-----2---------2------|
C|-----5-------3---------------3-----9--------------------------------|
G|---2---------------------------5-7----------------------------------|
C|-0------------------------------------------------------------------|


Verses
F|-------------------------------------------------------------------|
A|-------------------------------------------------------------------|
D|-----------------10---------------10\9-----------------------------|
C|-----------------10---------------10\9---------------2-3-5-3-2-0---|
G|-----------------8----------------8-\7---------------2-3-5-3-2-0---|
C|-0-0-0-0-0-0-0-0----0-0-0-0-0-0-0------0-0-0-0-0-0-0-2-3-5-3-2-0---|
pm . . . . . . . .    . . . . . . .      . . . . . . .            

Guitar Solo
F|-12-----12------12----12-14-15-15b-12----------15-12-15-----------------|
A|----15b----15b----15b-----------------15-13-12----------12-------14-----|
D|-----------------------------------------------------------14-12--------|
C|------------------------------------------------------------------------|
G|------------------------------------------------------------------------|
C|------------------------------------------------------------------------|

F|-------15----------15----17-15----------15----17-15----------15----17---|
A|-15-12----13-12-13----13-------13-12-13----13-------13-12-13----13------|
D|------------------------------------------------------------------------|
C|------------------------------------------------------------------------|
G|------------------------------------------------------------------------|
C|------------------------------------------------------------------------|

F|-17b-17b-19-20----------------------------------------------------21-22~-|
A|---------------19-18-------------------------------------------19--------|
D|---------------------20-------------------19-------------19-21-----------|
C|------------------------19-18-20----18-20----20----18-20-----------------|
G|---------------------------------19-------------19-----------------------|
C|-------------------------------------------------------------------------|
            
Submit corrections

comments powered by Disqus
↑ Back to top | Washya Tabs for Poison Running Through Your Veins. Lyrics for acoustic guitar and electric guitar. Tablatures and chords are parodies/interpretations of the original songs. You may use it for private study, scholarship, research or language learning purposes only