» » »

Washya, Permanence Tabs (ver.1)

Artists:  A B C D E F G H I J K L M N O P Q R S T U V W X Y Z # 

Permanence Tabs (ver.1)

Washya Tabs
 Rating:
4/5 (4 votes)
Permanence lessons Tabs too difficult? Try these video lessons and learn fast
1
                			     Permanence  - Washya

Tuning: Drop D
Intro

e|----------------------------------------------------------------------|
B|-------------------------------------------------------------------8~-|
G|-----------------------------------------------------6-------6---6----|
D|-----2-------2-------2-------4-------4-------4-----6---6---6---6------|
A|---2---2---2---2---2---2---4---4---4---4---4---4-4-------4------------|
D|-2-------2-------2-------4-------4-------4----------------------------|

Verses
e|--------------------------------------------------------------------------|
B|--------------------------------------------------------------------------|
G|---------------------2-------2-------3-------3---------------5---5---5-7~-|
D|-----2-------2-----2---2---2---2---3---3---3---3-----3-----5---5---5------|
A|---2---2---2---2-0-------0-------1-------1---------3---3-3----------------|
D|-2-------2---------------------------------------3------------------------|

Chorus
e|-----------------------------------------------|
B|-----------------------------------------------|
G|---------------6-6-8-------2-2-3-3---5-5-7-7-7-|
D|-2-2-2-2-4-4-4-6-6-8-2-2-2-2-2-3-3-3-5-5-7-7-7-|
A|-2-2-2-2-4-4-4-4-4-6-2-2-2-0-0-1-1-3-3-3-5-5-5-|
D|-2-2-2-2-4-4-4-------2-2-2---------3-----------|


Guitar Solo (Play Very Fast)
e|-------3-----------3-----------5-----------7-----9---9-10-12~-|
B|---2-4---4-2---2-4---4-2---4-6---6-4---6-8---8-6---6----------|
G|-3-----------3-----------5-----------7------------------------|
D|--------------------------------------------------------------|
A|--------------------------------------------------------------|
D|--------------------------------------------------------------|
            
Submit corrections

comments powered by Disqus
↑ Back to top | Washya Tabs for Permanence. Lyrics for acoustic guitar and electric guitar. 1 Tablatures and chords are parodies/interpretations of the original songs. You may use it for private study, scholarship, research or language learning purposes only