» » »

Washya, Peleton Tabs (ver.1)

Artists:  A B C D E F G H I J K L M N O P Q R S T U V W X Y Z # 

Peleton Tabs (ver.1)

Washya Tabs
 Rating:
4/5 (4 votes)
Peleton lessons Tabs too difficult? Try these video lessons and learn fast
                -----------------------------------------------------------------------------
-----------------------------------------------------------------------------
Tuning: Standard (ebgDAE)
Intro
e|----------------------------------|
b|----------------------------------|
g|--------------5-----------3-------|
D|----7----5----5-3-5-7-----3-5-3-2-|
A|----7----5----3-3-5-7-----1-5-3-2-|
E|-0005-0003-000--1-3-5-000---3-1-0-|
PM ...  ...  ...        ...   

Main Riff
e|---------------------------------------------------|
b|---------------------------------------------------|
g|-------------7/6-------------3-------10/11/10/8----|
D|-------------7/6-------------3-3-----10/11/10/8-10-|
A|-2222-5-2222-9/8-2222-4-2222-1-3-222-8/-9-/8-/6-10-|
E|-0000-3-0000-----0000-2-0000---1-000------------8--|
PM ....   ....     ....   ....     ... 

Verses
e|-----------------------------------|
b|-----------------------------------|
g|---------9-5-----------------------|
D|-4-7-2~--9-5-5~--2-3-6~-5~-2-3-2-5-|
A|-4-7-2~--7-3-5~--2-3-6~-5~-2-3-2-5-|
E|-2-5-0~------3~--0-1-4~-3~-0-1-0-3-|

Guitar Solo
e|----------------------------------------------12-----12-----12-|
b|-----------------------------10b~-10b-10b-10b----10b----10b----|
g|---7h8p7---7-------------7-8-----------------------------------|
D|-9-------9---9-7-9-9-7-9---------------------------------------|
A|---------------------------------------------------------------|
E|---------------------------------------------------------------|

e|-12h15p12----12h15p12h15p12----13h17p13----13h17p13h17p13-17b-19~--|
b|----------15----------------15----------17----------------17b------|
g|-------------------------------------------------------------------|
D|-------------------------------------------------------------------|
A|-------------------------------------------------------------------|
E|-------------------------------------------------------------------|

e|-19-20-19-17-18-17-15-17-15-12---------------------------------------10--|
b|-------------------------------14-12-------------------------------8-----|
g|-------------------------------------14------------------------5-6-------|
D|----------------------------------------14-12h14p12-10-9---9-7-----------|
A|---------------------------------------------------------8---------------|
E|-------------------------------------------------------------------------|

e|-------------7-----------------7----------------------------------------|
b|-10b-10b-10b---10-8-7---7-8-10---10-8-7---7-8-10b-10b-10b-8-7----8-7----|
g|----------------------9-----------------9---------------------10-----10-|
D|------------------------------------------------------------------------|
A|------------------------------------------------------------------------|
E|------------------------------------------------------------------------|

e|------------------------------------------------------------------10b--|
b|-----------------------------------------------------7---9-10-9-7-10b--|
g|-8-7------7--------------------------------------8-9---9---------------|
D|-----10-8---8-10-8-7-------------------8-7---7-6-----------------------|
A|---------------------9-7-6-----7-6-7-9-----9---------------------------|
E|---------------------------7-9-----------------------------------------|

e|-/12p8----12p8h12p8----15p12----15p12h15p12----17p14----17p14h17p14-----|
b|-------10-----------10-------14-------------14-------15-------------15--|
g|------------------------------------------------------------------------|
D|------------------------------------------------------------------------|
A|------------------------------------------------------------------------|
E|------------------------------------------------------------------------|

e|----13-12----13----------12-----------------------------------------------|
b|-15-------15----12-13-15----13-15-----------------------------------------|
g|----------------------------------13-12-------12--------------------------|
D|----------------------------------------13-15----15-13-12-----------------|
A|----------------------------------------------------------15-13----14-15--|
E|----------------------------------------------------------------12--------|

e|-------------------------------------------------13-15b-15b-15b--|
b|-------------12-------------------------------12-----------------|
g|-------13-15----13-15-13-12----13-------15-13--------------------|
D|-14-12----------------------15----12-13--------------------------|
A|-----------------------------------------------------------------|
E|-----------------------------------------------------------------|

e|-15b15b15b15b15b15b15b15b15b15b15b15b~-15-16-15-13-----------------------|
b|---------------------------------------------------15-14-12--------------|
g|------------------------------------------------------------10-9-----7---|
D|-----------------------------------------------------------------7-9---7-|
A|-------------------------------------------------------------------------|
E|-------------------------------------------------------------------------|

e|---------|
b|---------|
g|---------|
D|---------|
A|-9-7-9~--|
E|---------|
            
Submit corrections

comments powered by Disqus
↑ Back to top | Washya Tabs for Peleton. Lyrics for acoustic guitar and electric guitar. Tablatures and chords are parodies/interpretations of the original songs. You may use it for private study, scholarship, research or language learning purposes only