» » »

Washya, Party Time Tabs (ver.1)

Artists:  A B C D E F G H I J K L M N O P Q R S T U V W X Y Z # 

Party Time Tabs (ver.1)

Washya Tabs
Rating:
0/5 (0 votes)
Party Time lessons Tabs too difficult? Try these video lessons and learn fast
                Tuning: Standard (ebgDAE) 
Intro
e|-------------------|
B|-1-1-1-1-1-1-5-3-2-|
G|-0-2-2-0-2-0-0-0-0-|
D|-0-2-2-0-2-0-0-0-0-|
A|-------------------|
E|-------------------|

Verses
e|-----------------------------2--------------------|
B|-1-1--1-1-2-0---1-1--1-1-2-0-2--------------------|
G|-2-2--2-2-2-2---2-2--2-2-2-2-2-1-1-1--1-1-0-2-1-2-|
D|-2-2--2-2-2-2-2-2-2--2-2-2-2---2-2-2--2-2-2-2-2-2-|
A|--------------2----------------2-2-2--2-2-2-0-2-0-|
E|--------------0-----------------------------------|

Chorus
e|-1-1-x-1-1-3-0-0-0-0-3-3-0-------------0-0-0-0-|
B|-1-1-x-2-2-4-2-2-0-0-3-3-1-1-0-------1-1-1-2-0-|
G|-2-2-x-3-3-5-2-2-0-0-0-0-0-----3---3---2-2-2-0-|
D|-3-3-x-3-3-5-2-2-2-2-0-0-0-------2-----2-2-2-2-|
A|-3-3-x-1-1-3-0-0-2-2-2-2-2-------------0-0-0-2-|
E|-1-1-x-----------0-0-3-3-3-------------0-0-0-0-|

Solo (Play Slow)
e|-------------------0-3-----------------3-2-0-------2-0-----|
B|-1-0-----------1-0-----3-0---1-1-3-0---------3-3-3-----1-1-|
G|-----3-------3-------------2---------0---------------------|
D|-------2-2-2-----------------------------------------------|
A|-----------------------------------------------------------|
E|-----------------------------------------------------------|
            
Submit corrections

comments powered by Disqus
↑ Back to top | Washya Tabs for Party Time. Lyrics for acoustic guitar and electric guitar. Tablatures and chords are parodies/interpretations of the original songs. You may use it for private study, scholarship, research or language learning purposes only