» » »

Washya, Nubian Tabs (ver.1)

Artists:  A B C D E F G H I J K L M N O P Q R S T U V W X Y Z # 

Nubian Tabs (ver.1)

Washya Tabs
 Rating:
4/5 (4 votes)
Nubian lessons Tabs too difficult? Try these video lessons and learn fast
                -----------------------------------------------------------------------------
-----------------------------------------------------------------------------
Tuning: Drop D (DADGBE)
Intro
E|----------------------------------------|
B|----------------------------------------|
G|----------------------------------------|
D|----------------------------------------|
A|-0-0-3-0-5--0-0-3-0-5--0-0-3-0-5--0-1-1-|
D|-0-0-3-0-5--0-0-3-0-5--0-0-3-0-5--0-1-1-|

Verses
E|---------------------------------------------------------------------|
B|---------------------------------------------------------------------|
G|---------------------------------------------------------------------|
D|---------------------------------------------7/8\7----7/8\7----------|
A|-0-0-3-0-5--0-0-3-0-5--0-1h3--0-0-3-0-5--0-0-5/6\5-55-5/6\5-33-0-1/3-|
D|-0-0-3-0-5--0-0-3-0-5--0-1h3--0-0-3-0-5--0-0-------55-------33-0-1/3-|
PM * * * * *  * * * * *  *      * * * * *  * *      

Chorus
E|------------------------------------------------------------------------|
B|------------------------------------------------------------------------|
G|------------------------------------------------------------------------|
D|------4---4/55555-------------------------------4---4-------------------|
A|-2-2--2-2-2/33333-55555/88888-33-5-1-3-0-3h5-22-2-2-2-4444-1111---3p2p0-|
D|-2-2----2---------55555/88888-33-5-1-3-0-3h5-22---2---4444-1111-0-------|

Solo
E|----------------------------------------------------1212----12----13~-|
B|-15151515\131313\1212--15151515\131313\1212\1010-10------10----10-----|
G|----------------------------------------------------------------------|
D|----------------------------------------------------------------------|
A|----------------------------------------------------------------------|
D|----------------------------------------------------------------------|

Verses
E|---------------------------------------------------------------------|
B|---------------------------------------------------------------------|
G|---------------------------------------------------------------------|
D|---------------------------------------------7/8\7----7/8\7----------|
A|-0-0-3-0-5--0-0-3-0-5--0-1h3--0-0-3-0-5--0-0-5/6\5-55-5/6\5-33-0-1/3-|
D|-0-0-3-0-5--0-0-3-0-5--0-1h3--0-0-3-0-5--0-0-------55-------33-0-1/3-|
PM * * * * *  * * * * *  *      * * * * *  * *  

Chorus
E|------------------------------------------------------------------------|
B|------------------------------------------------------------------------|
G|------------------------------------------------------------------------|
D|------4---4/55555-------------------------------4---4-------------------|
A|-2-2--2-2-2/33333-55555/88888-33-5-1-3-0-3h5-22-2-2-2-4444-1111---3p2p0-|
D|-2-2----2---------55555/88888-33-5-1-3-0-3h5-22---2---4444-1111-0-------|
    
            
Submit corrections

comments powered by Disqus
↑ Back to top | Washya Tabs for Nubian. Lyrics for acoustic guitar and electric guitar. Tablatures and chords are parodies/interpretations of the original songs. You may use it for private study, scholarship, research or language learning purposes only