» » »

No Time Tabs (ver.1)

Artists:  A B C D E F G H I J K L M N O P Q R S T U V W X Y Z # 

No Time Tabs (ver.1)

Washya
Rating:
0/5 (0 votes)

Hard to play? Try these video lessons and learn fast.
                ------------------------------------------------------------------------------
------------------------------------------------------------------------------
Tuning: Drop D (DADGBE)
Intro
E|-------------------------------------|
B|-------------------------------------|
G|-------------------------------------|
D|-------------------------------------|
A|-00-00-00--00-00-00--00-00-00-0h11h3-|
D|-00-00-00--00-00-00--00-00-00-0h11h3-|

Verses
E|--------------------------------------------------------|
B|--------------------------------------------------------|
G|--------------------------------------------------------|
D|--------------------------------------------------------|
A|-00-00-00-111/4-00-00-00--00-00-00-000-1-00-00-00-1h2/4-|
D|-00-00-00-111/4-00-00-00--00-00-00-000-1-00-00-00-1h2/4-|

Chorus
E|--------------------------------------------------|
B|--------------------------------------------------|
G|---------------------5*-----3*-3-2----------------|
D|-3/5/8\7-7-5-7-5---------------3-2-6-4-3----------|
A|-1/3/6\5-5-3-5-3---3------1----1-0-4-2-1-00-00-00-|
D|-1/3/6\5-5-3-5-3-3------1----------4-2-1-00-00-00-|
            
Hard to play? Try these video lessons and learn fast. | Correct




comments powered by Disqus
↑ Back to top | Tablatures and chords are parodies/interpretations of the original songs. You may use it for private study, scholarship, research or language learning purposes only