» » »

Washya, Natures Calling Tabs (ver.1)

Artists:  A B C D E F G H I J K L M N O P Q R S T U V W X Y Z # 

Natures Calling Tabs (ver.1)

Washya Tabs
Rating:
0/5 (0 votes)
Natures Calling lessons Tabs too difficult? Try these video lessons and learn fast
                			     Nature's Calling - Washya

Tuning: Standard (ebgDAE) 
Intro (Play Slow)
e|------------------10-10h12p10~-|
B|-------------------------------|
G|-------------------------------|
D|-----------------------------------|
A|-----------------------------------|
E|-0---------------------------------|x 10


Verses/Chorus
e|-------8-----------4-----------------0-------0--------|
B|-------8-----------4---------------1-----1------------|
G|-------8-----------4-------------2---------2----------|
D|-----9---9-------5---5---------3-------3---------3----|
A|---7-------7---3-------3-----1-----------------1------|
E|-0-----------0-----------0-0-----------------------0--|



Guitar Solo (It might be a slow solo but it's quite difficult)
e|---------------------------------------------------------------9------12-|
B|------------------------------------------------------------10---10-9----|
G|-------------------------------------------------------------------------|
D|-------------------------------------------------------------------------|
A|---------6---------6--6p5p3-------3~--7h10p9p7h10p9-----7----------------|
E|-3-5-3-5---3-5-3-5----------5-3/5-------------------7-9---9--------------|


e|----9------12-12h13p10-12-------12b-10-------------------------------|
B|-10---10-9----------------10-12--------12-------------10---13-13p12--|
G|---------------------------------------------10~--7-8----8-----------|
D|------------------------------------------12-------------------------|
A|---------------------------------------------------------------------|
E|---------------------------------------------------------------------|


e|-------------------------------------------------------------------------|
B|-10----------------------------------------------------------------------|
G|----12-10-12-------------------------------------------------------------|
D|-----------------7-7h10p9h10p9h10p9-7~-------------------------------3---|
A|-------------7-9---------------------------5-5h7p6p5h7p6p5h7p6p5-3-5-----|
E|---------------------------------------5-7-------------------------------|



e|-----------------------------------10h12p10-8/10~-------------------|
B|------------------------8b-7---7---10-------------------------------|
G|-----------------7-9-10------8---8--------------------9-9h10p9h10-9-|
D|-5-5h7p5-5h7p5-5----------------------------------7-9---------------|
A|--------------------------------------------------------------------|
E|--------------------------------------------------------------------|



e|------------------------------7----------7-7h10p7h10-7~------------7--|
B|-------5-7-7h8p7h8p7-7--------7-7--------7-------------------------7--|
G|-5---7-----------------8-10-8-----8-10-8------------------7-9-11-9----|
D|---7----------------------------------------------------8-------------|
A|----------------------------------------------------------------------|
E|----------------------------------------------------------------------|


e|-7h8p7-5h6p5-3h4p3---------------------------------------------------|
B|-------------------------7b-7-5~-------------------------------------|
G|---------------------3-5---------------------------------------------|
D|-------------------------------------4-6-6h7-6h7p6-------------------|
A|---------------------------------4-6----------------8p7p5-6p5p3------|
E|----------------------------------------------------------------3b---|

Fade out
            
Submit corrections

comments powered by Disqus
↑ Back to top | Washya Tabs for Natures Calling. Lyrics for acoustic guitar and electric guitar. Tablatures and chords are parodies/interpretations of the original songs. You may use it for private study, scholarship, research or language learning purposes only