» » »

Washya, Nailed To The Cross Tabs (ver.1)

Artists:  A B C D E F G H I J K L M N O P Q R S T U V W X Y Z # 

Nailed To The Cross Tabs (ver.1)

Washya Tabs
 Rating:
4/5 (4 votes)
Nailed To The Cross lessons Tabs too difficult? Try these video lessons and learn fast
                
Tuning: Drop C
Intro
D|----------------------------------------------------------------------|
A|----------------------------------------------------------------------|
F|-----7-7-----5-5-----6-6-----4-4--------------------------------------|
C|-----7-7-----5-5-----6-6-----4-4--------------------------------------|
G|--------------------------------------6-6-----3-3-----6---8-----3---5-|
C|-555-----555-----333-----333------000-6-6-000-3-3-000-6-0-8-000-3-0-5-|
pm ...     ...     ...     ...      ...     ...     ...   .   ...   . 

Verses
D|--------------------------------------------------------------------|
A|--------------------------------------------------------------------|
F|--------------------------------------------------------------------|
C|--------------------------------------------------------------------|
G|-00-00-0-0-00-00-0-000-8\-00-0-0-000-6\5-0-000-2-5-2-6-6h7p5-00-000-|
C|-00-00-0-0-00-00-0-000-8\-00-0-0-000-6\5-0-000-2-5-2-6-6h7p5-00-000-|
pm .. .. . . .. .. . ...    .. . . ...     . ...               .. ... 


Chorus
D|--------------------------------------------------------------|
A|--------------------------------------------------------------|
F|-----------------------------666666/88888---------------------|
C|-----------------------------666666/88888---------------------|
G|-0-2-5\8-7-5-0-2-3-2-6-4-3-0-444444/66666-666h7p3-----3-----3-|
C|-0-2-5\8-7-5-0-2-3-2-6-4-3-0-444444/66666-666h7p3-000-3-000-3-|
pm                                                  ...   ... 


Guitar Solo
D|---------------12-13b-12--------------------------------12----12----12--|
A|-13b-12~----13-----------13~-------10-12-10----10-12-10----11----11------|
F|---------12------------------10-12----------12---------------------------|
C|-------------------------------------------------------------------------|
G|-------------------------------------------------------------------------|
C|-------------------------------------------------------------------------|


D|-13~--13h15p13p12h13-----13h15p13p12h13-----13h15p13p12h13-----17b----|
A|---------------------15~----------------15~----------------15~-19b----|
F|----------------------------------------------------------------------|
C|----------------------------------------------------------------------|
G|----------------------------------------------------------------------|
C|----------------------------------------------------------------------|


D|-19b-22b-22b-|
A|-21b-21b-21b-|
F|-------------|
C|-------------|
G|-------------|
C|-------------|
            
Submit corrections

comments powered by Disqus
↑ Back to top | Washya Tabs for Nailed To The Cross. Lyrics for acoustic guitar and electric guitar. Tablatures and chords are parodies/interpretations of the original songs. You may use it for private study, scholarship, research or language learning purposes only