» » »

Washya, Malevolence Tabs (ver.1)

Artists:  A B C D E F G H I J K L M N O P Q R S T U V W X Y Z # 

Malevolence Tabs (ver.1)

Washya Tabs
 Rating:
4/5 (4 votes)
Malevolence lessons Tabs too difficult? Try these video lessons and learn fast
                                        Malevolence -  Washya
Tuning: Drop B
Intro
B|-------------|
F#|------------|
B|-------------|
E|-------------|
G#|------------|
C#|-0-0-0-0000-|
pm  . . . ....

Verses pt 1
B|------------------------------------------------|
F#|-----------------------------------------------|
B|------------------------------------------------|
E|------------------------------------------------|
G#|-----------------------------------------------|
C#|-0-2b-0-2b-0-2b-0-2b-0-22-0-2b-0-2b-0-2b-0-6-1-|

Pt 2
B|-------------------------------------------------------------|
F#|------------------------------------------------------------|
B|-------------------------------------------------------------|
E|------------------------------------------------222333555777-|
G#|-000-00---000-00---000-00---000-00-6-1--000-00-000111333555-|
C#|-000-00---000-00---000-00---000-00-6-1--000-00--------------|
pm  ... ..   ... ..   ... ..   ... ..      ... .. ............ 

Chorus/Main Riff
B|-----------------------------------------------------------------|
F#|----------------------------------------------------------------|
B|------------------------------------------------5h7p5------------|
E|----------3~---3h5p3--------------------------6-------6----------|
G#|-----3-5----5-------5-4-2-22-2-22222-2/8\7-7-----------7~-5-8\7-|
C#|-0-0----------------5-4-2-22-2-22222-2/8\7----------------5-8\7-|
pm  . . 
            
Submit corrections

comments powered by Disqus
↑ Back to top | Washya Tabs for Malevolence. Lyrics for acoustic guitar and electric guitar. Tablatures and chords are parodies/interpretations of the original songs. You may use it for private study, scholarship, research or language learning purposes only