» » »

Machanical Waste Tabs (ver.1)

Artists:  A B C D E F G H I J K L M N O P Q R S T U V W X Y Z # 

Machanical Waste Tabs (ver.1)

Washya
Rating:
0/5 (0 votes)

Hard to play? Try these video lessons and learn fast.
                                        Mechanical Waste - Washya
Tuning: Drop C
Intro
D|------------------------------------------------------------------|
A|------------------------------------------------------------------|
F|------------------------------------------------------------------|
C|------------------------------------------------------------------|
G|------------------------------------------------------------------|
C|-2-22-2-2-2-2-2-2-2-2-2-222-2-2-4-4-4-4-444-4-4-4-4-0-0-0-000-0-0-|
pm . .. . . . . . . . . . ... . . . . . . ... . . . . . . . ... . . 

Intro 2
D|-----------------------------------------------------------------|
A|-----------------------------------------------------------------|
F|-----------------------------------------------------------------|
C|-2-22-2-2-2-2-2-2-2-2-222-2-2-4-4-4-4-444-4-4-4-4-0-0-0--000-0-0-|
G|-2-22-2-2-2-2-2-2-2-2-222-2-2-4-4-4-4-444-4-4-4-4-0-0-0--000-0-0-|
C|-2-22-2-2-2-2-2-2-2-2-222-2-2-4-4-4-4-444-4-4-4-4-0-0-0--000-0-0-|


Verses
D|------------------------------------------------------------|
A|------------------------------------------------------------|
F|------------------------------------------------------------|
C|-22-2-44-4-55-55-3333---------------------------------------|
G|-22-2-44-4-55-55-3333---------------------------------------|
C|-22-2-44-4-55-55-3333-111-0-0-0-0-0-0-0-000-0-0-1p0h1p0-000-|
pm                          . . . . . . . ... . .         ...  

Chorus

D|-------------------------------------------------------------------------|
A|-------------------------------------------------------------------------|
F|-------------------------------------------------------------------------|
C|-111-1-1----------------1-222-000---000---000----------------------------|
G|-111-1-1--------------2---222-000---000---000---2-0----------------------|
C|-111-1-1-2222-2-2-2-2-----222-0001b-0001b-0001b-----222233331111-0000-00-|
pm         .... . . .                                 ............ .... .. 

Guitar Solo
D|-------------13----------13----------13-----------------------------------|
A|----------------12-10-12----12-10-12----12-10-12--------------------------|
F|-------------------------------------------------13-12-10----10-----------|
C|----------------------------------------------------------12-------12-10--|
G|----------------------------------------------------------------13--------|
C|-00-00-00-00--------------------------------------------------------------|
pm .. .. .. .. 

D|----------------------------------------------------------------13-17~--|
A|-------------12-------------------------------------------13-12---------|
F|----10-12-13----10-------------------------13-15-12-13-15---------------|
C|-12----------------12-------------15-13-12------------------------------|
G|----------------------12-10-12-13---------------------------------------|
C|------------------------------------------------------------------------|
            
Hard to play? Try these video lessons and learn fast. | Correct




comments powered by Disqus
↑ Back to top | Tablatures and chords are parodies/interpretations of the original songs. You may use it for private study, scholarship, research or language learning purposes only