» » »

Washya, Lurking Stranger Tabs (ver.1)

Artists:  A B C D E F G H I J K L M N O P Q R S T U V W X Y Z # 

Lurking Stranger Tabs (ver.1)

Washya Tabs
Rating:
0/5 (0 votes)
Lurking Stranger lessons Tabs too difficult? Try these video lessons and learn fast
                -----------------------------------------------------------------------------
-----------------------------------------------------------------------------
Tuning: Standard (EBGDAE)
Intro
E|---------0---------------0-------------------|
B|-------0---------------0---------------------|
G|-----3-----3---------3-----3---------3-----1-|
D|---5---------5-----5---------5-----5-----3---|
A|-7-------------7-7-------------7-7-----5-----|
E|---------------------------------------------|

Part 2 (Verses) 
E|----------------------------------|
B|----------------------------------|
G|-2\-------------------------------|
D|-2\-------------------------------|
A|-0\-222222-3/4-3/4-222222-3/4-4-2-|
E|----000000-1/2-1/2-000000-1/2-2-0-|
PM    ******         ******       

Chorus
E|-------------------------------------------------|
B|-------------------------------------------------|
G|-------------------------------------------------|
D|-------------4-444-7-5-7-------------------------|
A|-4-444-5-555-2-222-5-3-5-4-444-5-555-7-777-3-2-3-|
E|-2-222-3-333-------------2-222-3-333-5-555-1-0-1-|
PM   ***   ***   ***         ***   ***   *** 
            
Submit corrections

comments powered by Disqus
↑ Back to top | Washya Tabs for Lurking Stranger. Lyrics for acoustic guitar and electric guitar. Tablatures and chords are parodies/interpretations of the original songs. You may use it for private study, scholarship, research or language learning purposes only