>
 >
Long Live The King

Long Live The King Guitar Tabs

Washya - Long Live The King chords, tabs, tablatures, lyrics

Guitar lessons | Add/correct | Request | Top 50 tabs Artists:  A B C D E F G H I J K L M N O P Q R S T U V W X Y Z 0-9

Long Live The King Guitar Tabs – Washya

CD, Sheet music, Poster

Do you like Long Live The King? Share with your friends now
Tabs
-----------------------------------------------------------------------------
            Long Live The King Album Tab - Washya
-----------------------------------------------------------------------------

1. Long Live The King
2. Escapee 
3. Scratching The Itch
4. Apparitions
5. Grand Design
6. Hillside Stopover
7. America
8. Crucified
9. Buried In A Sea Of Thorns
10. Patricide  

-----------------------------------------------------------------------------
            Long Live The King 
-----------------------------------------------------------------------------
Tuning: Standard (ebgDAE)
Intro
e|---------------------0---0-------|
b|-----------------------3-----3---|
g|---------1-3---------------0-----|
D|-----1-3-----2-1-----------------|
A|-2-3---------------2-----------2-|
E|-----------------0-------------0-|

Verses
e|-------0-----------0--------------|
b|---------1-----------3------------|
g|---2-------2-----------0----------|
D|-----2---------2----------5-555-7-|
A|-0---------------2--------3-333-5-|
E|-------------0--------------------|

Chorus
e|---------------------------------|
b|---------------------------------|
g|---------------------------------|
D|-3-333-------5-555-------5-555-7-|
A|-1-111-5-555-3-333-3-333-3-333-5-|
E|-------3-333-------1-111---------|

-----------------------------------------------------------------------------
                            Escapee
-----------------------------------------------------------------------------
Tuning: Drop D (DADGBE)
Intro/verses
e|--------------------------------|
b|--------------------------------|
g|--------------------------------|
D|--------------------------------|
A|----7p5h7----7p5h7----7p5h7-5h7-|
D|-00-------00-------00-----------|
pm ..       ..       .. 

Part 2 
e|---------------------------------|
b|---------------------------------|
g|---------------------------------|
D|---------------------------------|
A|-------6655888888-555666---------|
D|-4444--------------------4444444-|
pm .... ........... ...... .......

Main Riff
e|------------------------------------------------------------------|
b|------------------------------------------------------------------|
g|------------------------5----------3-----------2-----0-2----------|
D|---0-----2~-------------5----------3-----------2-0-2-----2-0-2-2~-|
A|-----2-0-------------------------------------------------------2~-|
D|-0----------//-0000-0-0---0000-0-0---00000-0-0--------------------|
pm               .... . .   .... . .   ..... . .  

-----------------------------------------------------------------------------
                        Scratching The Itch
-----------------------------------------------------------------------------
Tuning: Drop C (DAFCGC)
intro (Heavy palm muting lightly touch strings)
D|------------------------------------|
A|------------------------------------|
F|------------------------------------|
C|-x-xx-x-x-2-x-xx-x-x-3p2-x-xx-x-x-2-|
G|-x-xx-x-x-2-x-xx-x-x-3p2-x-xx-x-x-2-|
C|-x-xx-x-x-2-x-xx-x-x-3p2-x-xx-x-x-2-|
pm . .. . .   . .. . .     . .. . . 

Verses
D|-----------------------------------------|
A|-----------------------------------------|
F|-----------------------------------------|
C|-x-xxx-x-x-2-x-xxx-x-x-3p2/6\5-x-xxx-x-x-|
G|-x-xxx-x-x-2-x-xxx-x-x-3p2/6\5-x-xxx-x-x-|
C|-x-xxx-x-x-2-x-xxx-x-x-3p2/6\5-x-xxx-x-x-|

Chorus                                             (A.H.)
D|---------------------------------------------------5---|
A|---------------------------------------------------5---|
F|---------------------------------------------------5---|
C|----------5-555-------------------4-44-----------------|
G|-----3-33-3-333-0-000-1-111-2-222-2-22-4-7-3-6-2-3-----|
C|-//x-3-33-------0-000-1-111-2-222------4-7-3-6-2-3-----|

-----------------------------------------------------------------------------
                             Apparitions
-----------------------------------------------------------------------------
Tuning: Drop C (DAFCGC)
Intro (play slow)
D|--9-7---------------------------------------1-3-|
A|------7-9-6-4---------------------------2-3-----|
F|--------------4-6-4-2---------------2-1---------|
C|----------------------2-4-------1-3-------------|
G|--------------------------1-3-3-----------------|
C|--------------------------1-3-------------------|

Verses
D|------------------------------------|
A|------------------------------------|
F|------------------------------------|
C|-----3-----4------------------------|
G|-----1-----2-----1---2---4-----11h3-|
C|-000---000---000-1-0-2-0-4-000-11h3-|
pm ...   ...   ...   .   .   ... 

Chorus
D|------------------------------------------|
A|------------------------------------------|
F|------------------------------------------|
C|------3-333-------------------------------|
G|-0000-1-111-5-555-7-77-2222-3333-------1--|
C|-0000-------5-555-7-77-2222-3333-000-1----|

-----------------------------------------------------------------------------
                      Grand Design
-----------------------------------------------------------------------------
Drop B (BF#BEG#C#)
Intro
B|-------------------------------------------------------------------|
F#|------------------------------------------------------------------|
B|-------------------------------------------------------------------|
E|---------------------------------5---4---2-------4-----------------|
G#|----4---5---4---2---5---4---2---------------5-------4---5---4---2-|
C#|-22---2---2---2---2---2---2---2---2---2---2---2---2---2---2---2---|
pm  ..   .   .   .   .   . . .   . . .   .   . . .   . . .   . .     

Verses
B|------------------------------------------------------------------------|
F#|-----------------------------------------------------------------------|
B|---------------------------------------------------------10p7-----------|
E|--------------------------------------------------------------10p7------|
G#-------------------------------------------------------------------9----|
C#|-000-0-0000-000-0-0000-000-0-0000-000-0-0000-000-0-0000--------------7-|
pm  ... . .... ... . .... ... . .... ... . .... ... . .... 

Chorus
B|--------------------------------------------------------------------------|
F#|-------------------------------------------------------------------------|
B|--------------------------------------------------------------------------|
E|------------------------------------------------5-----------4-------------|
G#|-----------3-----------5-----------6-----------3-----------2-1h2p1p0h1p0-|
C#|-0000-00-0-3-0000-00-0-5-0000-00-0-6-0000-00-0---0000-00-0---1h2p1p0h1p0-|
pm .... .. .   .... .. .   .... .. .   .... .. .   .... .. .   . . . . . . 

Solo (play very fast)
B|----------------------------------------------13~-|
F#|-------------------------------------9-11-12-----|
B|--------------------------6-8-9-6-8-9-------------|
E|--------------5-7-8-5-7-8-------------------------|
C#|-5-7-8-5-7-8-------------------------------------|
G#|-------------------------------------------------|

B|-13h18p13h17p13h18p13h17-17b-17----17-16-15----15----------------19-17-16-|
F#|-------------------------------17----------17----16-------15-16----------|
B|-----------------------------------------------------15-16----------------|
E|--------------------------------------------------------------------------|
G#|-------------------------------------------------------------------------|
C#|-------------------------------------------------------------------------|

B|-19~-21-22-21----21-------------------22----21----22-19h22p21p19h22-22~-|
F#|--------------22----22-21-22-21-19-19----19---19-----------------------|
B|------------------------------------------------------------------------|
E|------------------------------------------------------------------------|
G#|-----------------------------------------------------------------------|
C#|-----------------------------------------------------------------------|

-----------------------------------------------------------------------------
                           Hillside Stopover 
-----------------------------------------------------------------------------
Tuning: Standard (ebgDAE)
Intro
e|----------------------------|
b|----------------------------|
g|----------------------------|
D|-7-77-7-9-7-77-7-9----------|
A|-5-55-5-7-5-55-5-7-9-99-5-7-|
E|-------------------7-77-3-5-|

Verses
e|--------------------------------------------------------|
b|--------------------------------------------------------|
g|--------------------------------------------------------|
D|-------------------7-777-77----------5-555-55-7-777-----|
A|-7-777-77-5-555-55-5-555-55-5-555-55-3-333-33-5-555-5-7-|
E|-5-555-55-3-333-33----------3-333-33----------------3-5-|
pm   ..  .    ..  .  . ..     . ..  .  . ..  ..   ..  .   

Chorus
e|-------------------------------------------------------------------------|
b|-------------------------------------------------------------------------|
g|-------------------------------------------------------------------------|
D|---------------------------------------------5-------7-77----------------|
A|-------5-------7-77-------3-------5-55-5-6-8---8-6-5-5-55-------3--------|
E|-5-6-8---8-6-5-5-55-3-4-6---6-4-3-3-33--------------------3-4-6---6-4-3--|
PM . . . . . . .      . . . . . . .      . . . . . . .      . . . . . . . 

e|-----------------------------------------------------------------|
b|-----------------------------------------------------------------|
g|-----------------------------------------------------------------|
D|-------------3-------5-555-------5-------7-777-------------------|
A|-5-555-3-4-6---6-4-3-3-333-5-6-8---8-6-5-5-555-------3-------5-7-|
E|-3-333-----------------------------------------3-4-6---6-4-3-3-5-|
pm       . . . . . . .       . . . . . . .       . . . . . . . 

-----------------------------------------------------------------------------
                           America - Instrumental
-----------------------------------------------------------------------------
Tuning: Drop D (DADGBE)
Intro (play throughout whole song)
e|----------------|
b|----------------|
g|----------------|
D|----------------|
A|----5---3-----3-|
D|-00---0---3h5---|x many
pm ..   .   . . 

-----------------------------------------------------------------------------
                         Crucified
-----------------------------------------------------------------------------
Tuning: Standard (ebgDAE)
Intro/Verses
e|---------------------------------------------0-----------0-|
b|-2-----------------1p0h1---------2-------------1p0-----2-0-|
g|---2-------------2-------2---------2-------4-------2-3-----|
D|-----2-----2-2-2-----------2-2-2---------4-----------------|
A|---------2---0---------------0---------2-------------------|
E|-------4-----------------------------4---------------------|

Chorus
e|-----------------|
b|-----------------|
g|-----------------|
D|---------------3-|
A|-3-2-3-4-5-----1-|
E|-1-0-1-2-3-x10---|

Lead Parts (verses)
e|-----10-8-7---7-5-----------|
b|-7h8--------7-----7---------|
g|----------------------------|
D|----------------------------|
A|----------------------------|
E|----------------------------|

Lead Parts (Chorus)
e|-----------------------9-12-11---12-15~-|
b|-------9---------11-12---------9--------|
g|-12-11---12-11-9------------------------|
D|----------------------------------------|
A|----------------------------------------|
E|----------------------------------------|

-----------------------------------------------------------------------------
                     Buried In A Sea Of Thorns
-----------------------------------------------------------------------------
Tuning: Drop C (DAFCGC)
Intro
D|-------------------------------------------------------------|
A|-------------------------------------------------------------|
F|-------------------------------------------------------------|
C|--------4\3--5\4-7\6-9\8-------------------------------------|
G|--------2\1--3\2-5\4-7\6--------9h11h12p11p9/7p6h7p6/2h4p2p0-|
C|-000000------------------000000----------------------------0-|
pm ......                  ......                            . 

Verses
D|----------------------------------------------------------------------|
A|----------------------------------------------------------------------|
F|----------------------------------------------------------------------|
C|----------------------------------------------------------------------|
G|----------------------------------------------------------------------|
C|-33333333322255555553335552222222-55555555544477777777775557774444444-|
pm ................................ ...................................

Chorus
D|--------------------------------------------------|
A|--------------------------------------------------|
F|--------------------------------------------------|
C|--------------------------------------------------|
G|-3/2-3/2-3-0-000000-3/2-3/2-3-5-555555-6-66-5-55--|
C|-3/2-3/2-3-0-000000-3/2-3/2-3-5-555555-6-66-5-55--|
pm             ......             ...... 

-----------------------------------------------------------------------------
                      Patricide 
-----------------------------------------------------------------------------
Tuning: Standard (slight palm mute the bass notes)
Intro
e|-----0--------------0---3-5--------5-3-0---------0-----3-----|
b|-------0----------0---0----------5-------------0---3-----0---|
g|---------4------2------------------------------------0-------|
D|-----------5--3----------------------------------------------|
A|---6--------------------------4-------------2----------------|
E|-7--------------------------5-------------3------------------|
pm . .                        . .           . . 

Verses
e|---------0---0-0-0-------0-|
b|-----------4-0-0-0-------0-|
g|-------4-----5-4-2-------2-|
D|-----5-------------2-4-5---|
A|---2-----------------------|
E|-0-------------------------|

Chorus
e|---------------------------|
b|---------------------------|
g|---------------------------|
D|--------------------6666-5-|
A|-2-2-2-3-4-55-4-4-4-4444-3-|
E|-0-0-0-1-2-33-2-2-2--------|
pm . . . 





Comments


Popular Washya tabs & chords
Bad To The Bone Tabs
Children Of The Night Tabs
Disposable Enemy Tabs
End Of Time Tabs
Im Frustrated Tabs
Robot Rock Tabs
Singled Out Tabs
Strung Out Tabs
Technical Difficulties Tabs
The Demon Inside Of Me Tabs


Song lyrics



↑ Back to top | Tablatures and chords are parodies/interpretations of the original songs. You may use it for private study, scholarship, research or language learning purposes only
© 2014 AZChords.com Contact us | Privacy policy | DMCA | Add/correct tabs | Request tabs | Top 50 tabs