» » »

Washya, Lesser Quality Tabs (ver.1)

Artists:  A B C D E F G H I J K L M N O P Q R S T U V W X Y Z # 

Lesser Quality Tabs (ver.1)

Washya Tabs
 Rating:
4/5 (4 votes)
Lesser Quality lessons Tabs too difficult? Try these video lessons and learn fast
1
                -----------------------------------------------------------------------------
-----------------------------------------------------------------------------
Tuning: Standard (EBGDAE)
Intro (Really Nice Opening Riff Played Slow)
E|---------0---------------0------------------------------8---5-|
B|-------4---4-----------4---4-----------6--------------8---8---|
G|-----5-------5-------5-------5-------7---7----------9---------|
D|---6-----------6---6-----------6---8-------8-----10-----------|
A|-3---------------3---------------5-----------5-7--------------|
E|--------------------------------------------------------------|

Main Riff/f**king Brutal!!!
E|--------------------------------------------------------------------------|
B|--------------------------------------------------------------------------|
G|--------------------------------------------------------------------------|
D|---------2/3-------------------777-5--------------------------------------|
A|-7/8-3/5-2/3-5-2-3-4-5-4-5-8-7-555-3-4-5-4-2222-2h3-3-6/55-5/44-4/33-xx-2-|
E|-5/6-1/3-----3-0-1-2-3-2-3-6-5-------2-3-2-0000-----1-4/33-3/22-2/11-xx-0-|

Verses
E|---------2---------------2---------|
B|---3-2-----3-2-3---3-2-----3-2-3\1-|
G|-4-----4---------4-----4---------2-|
D|---------------------------------2-|
A|-----------------------------------|
E|-----------------------------------|
            
Submit corrections

comments powered by Disqus
↑ Back to top | Washya Tabs for Lesser Quality. Lyrics for acoustic guitar and electric guitar. 1 Tablatures and chords are parodies/interpretations of the original songs. You may use it for private study, scholarship, research or language learning purposes only