» » »

Washya, Leave That Bitch Alone Tabs (ver.1)

Artists:  A B C D E F G H I J K L M N O P Q R S T U V W X Y Z # 

Leave That Bitch Alone Tabs (ver.1)

Washya Tabs
 Rating:
4/5 (4 votes)
Leave That Bitch Alone lessons Tabs too difficult? Try these video lessons and learn fast
                ------------------------------------------------------------------------------
------------------------------------------------------------------------------
Tuning: Standard (EBGDAE)
Intro
E|-----------------------------------------------|
B|-----------------------------------------------|
G|-x-3-x-3-x-33-----3/5-5-x-5-x-5-x-55-----3-x---|
D|-x-3-x-3-x-33-----3/5-5-x-5-x-5-x-55-----3-x-3-|
A|-x-1-x-1-x-11---1-1/3-3-x-3-x-3-x-33---3-1-x-3-|
E|--------------3----------------------5-------1-|

Verses
E|----------------------------------|
B|----------------------------------|
G|----------------------------------|
D|-3/5-5-55-----33-3-33-----55-5-55-|
A|-1/3-3-33-3-5-11-1-11-5/7-33-3-33-|
E|----------1-3---------3/5---------|

Chorus
E|-----------------------------------------------------------|
B|-----------------------------------------------------------|
G|-----------------------------------------------------------|
D|---------------------------33/5-55/3/5---------------------|
A|-2-------1-----2-222-------11/3-33/1/3-2-------1p0---3/5-2-|
E|-0-3p2p0---0h2-0-000-3p2p0-------------0-3p2p0-----3-1/3-0-|
            
Submit corrections

comments powered by Disqus
↑ Back to top | Washya Tabs for Leave That Bitch Alone. Lyrics for acoustic guitar and electric guitar. Tablatures and chords are parodies/interpretations of the original songs. You may use it for private study, scholarship, research or language learning purposes only