» » »

Washya, Last Stand Tabs (ver.1)

Artists:  A B C D E F G H I J K L M N O P Q R S T U V W X Y Z # 

Last Stand Tabs (ver.1)

Washya Tabs
 Rating:
4/5 (4 votes)
Last Stand lessons Tabs too difficult? Try these video lessons and learn fast
1
                 
Tuning: Standard (EADgbe) 
Intro - Main Riff
e|-----------------------------------------|
B|-----------------------------------------|
G|-----------------------------------------|
D|-----------------------------------------|
A|---------------------------------5-4-3-2-|
E|-0-3-0-5-6-5-3-5-0-3-0-5-6-5-3-5-3-2-1-0-|
pm . . . . . . . . . . . . . . . . 


Verses
e|------------------------------------9---9-11-9---9--------------|
B|----------------------------------8---8--------8----------------|
G|-2h3p2h3h5p3p2h3------------------------------------------------|
D|-----------------2h3p2h3h5p3p2h3-----------------------5--------|
A|-------------------------------------------------------3-4-3-2--|
E|---------------------------------------------------000---2-1-0--|
pm                                                   ... 

Chorus
e|------------------------------------------------|
B|------------------------------------------------|
G|-2-2-2--5-5-7-----------------------------------|
D|-2-2-2--5-5-7-----------------------------------|
A|-0-0-0--3-3-5-------5-------6-7h8p7-7h8p7-----7-|
E|--------------8-7-5-3-9-8-6-4-------------9-7-5-|  
pm              . . .   . . .               . .   


Guitar Solo

e|-12b~-12h13p12h15p13p12h13h12h15p13----13p12------------------------------|
B|-12b--------------------------------15-------15p13p12h13p12---------------|
G|------------------------------------------------------------14-15---------|
D|------------------------------------------------------------------13-12---|
A|--------------------------------------------------------------------------|


e|----------------------------------12h13h15h17t20p17p15p13p12-------------|
B|-------------------------------12----------------------------13----------|
G|-------------13p10h15p10----13----------------------------------15-13----|
D|----12h13h15-------------12-------------------------------------------12-|
A|-10----------------------------------------------------------------------|
E|-------------------------------------------------------------------------|



e|--------------13h15p----------------15p13----------13h15p13----------17~-|
B|-----------12--------13----------13-------12----12----------12-----------|
G|-----15-13--------------12----12-------------11----------------10h13-----|
D|--13-----------------------11--------------------------------------------|
A|-------------------------------------------------------------------------|
E|-------------------------------------------------------------------------|
            
Submit corrections

comments powered by Disqus
↑ Back to top | Washya Tabs for Last Stand. Lyrics for acoustic guitar and electric guitar. 1 Tablatures and chords are parodies/interpretations of the original songs. You may use it for private study, scholarship, research or language learning purposes only