» » »

Kiss Of The Messiah Tabs (ver.1)

Artists:  A B C D E F G H I J K L M N O P Q R S T U V W X Y Z # 

Kiss Of The Messiah Tabs (ver.1)

Washya
Rating:
0/5 (0 votes)

Hard to play? Try these video lessons and learn fast.
                
Tuning: Standard (EADgbe)
Intro
e|--------------------------|
B|----15-13-12----12--------|
G|-12----------15----13-15~-|
D|--------------------------|
A|--------------------------|
E|--------------------------|x Many


Verses
e|----------------------------------------------------------------8h10-----|
B|-------------------------------------------------------------10------9~--|
G|-----4--------------------8----------------------------10h12-------------|
D|-5h7-------4----------7h9-------8------------------10--------------------|
A|-------5h7------------------7h9--------------10h12-----------------------|
E|--------------5h8p3------------------7h10p5------------------------------|


Chorus
e|----------------------------------------------|
B|----------------------------------------------|
G|-9-7-9-10--------------------------10-5-7-----|
D|-9-7-9-10-7-9----------------------10-5-7-7-9-|
A|-7-5-7-8--7-9-------13-12----------8--3-5-7-9-|
E|----------5-7-12-15-------10h12p10--------5-7-|



Guitar Solo
e|-15b-15b-15b-15b-15h17----15~-19b-17-15-17-20-------------20b-20b-------|
B|-17b-17b-17b-17b-------17---------------------18-20----18---------19~---|
G|----------------------------------------------------19------------------|
D|------------------------------------------------------------------------|
A|------------------------------------------------------------------------|
E|------------------------------------------------------------------------|

e|-22----------22----------22-------21-22-20-------20-------21-22~--|
B|----21-19-21----21-19-21----21-22----------19-18----19-18----22~--|
G|------------------------------------------------------------------|
D|------------------------------------------------------------------|
A|------------------------------------------------------------------|
E|------------------------------------------------------------------|
            
Hard to play? Try these video lessons and learn fast. | Correct




comments powered by Disqus
↑ Back to top | Tablatures and chords are parodies/interpretations of the original songs. You may use it for private study, scholarship, research or language learning purposes only