» » »

Just Cause Tabs (ver.1)

Artists:  A B C D E F G H I J K L M N O P Q R S T U V W X Y Z # 

Just Cause Tabs (ver.1)

Washya
Rating:
0/5 (0 votes)

Hard to play? Try these video lessons and learn fast.
                ------------------------------------------------------------------------------
------------------------------------------------------------------------------
Tuning: Standard (ebgdae) 
Intro
E|-------------------------------------------------------|
B|-------------------------------------------------------|
G|-------------------------------------------------------|
D|-4444-4-44-4-4/777-4444-4-44-4-4/777-------------------|
A|-2222-2-22-2-2/555-2222-2-22-2-2/555-3333-3-33-3-3/555-|
E|-------------------------------------1111-1-11-1-1/333-|

Verses
E|------------------------------------------------------------------------|
B|------------------------------------------------------------------------|
G|------------------------------------------------------------------------|
D|----------------------------------------------------------------3-1---1-|
A|-8888888888888-7/8-7/8888888888888-4/5-4/555555555-4/5\4-222222-----3---|
E|-6666666666666-5/6-5/6666666666666-2/3-2/333333333-2/3\2-000000---------|
PM *************       *************       *********       ****** 

E|---------|
B|---------|
G|---------|
D|---------|
A|-3-1-----|
E|-----3-1-|

Chorus
E|---------------------------------------------------------------------|
B|---------------------------------------------------------------------|
G|---------------------------------------------------------------------|
D|------------------77-7777-77-3-333-33-3-33-----------------8888-55---|
A|-4444-44-4-444-22-55-5555-55-1-111-11-1-11-555-55-5-55-555-6666-33-5-|
E|-2222-22-2-222-00--------------------------333-33-3-33-333---------3-|
            
Hard to play? Try these video lessons and learn fast. | Correct




comments powered by Disqus
↑ Back to top | Tablatures and chords are parodies/interpretations of the original songs. You may use it for private study, scholarship, research or language learning purposes only