» » »

Washya, Jungle Beat Tabs (ver.1)

Artists:  A B C D E F G H I J K L M N O P Q R S T U V W X Y Z # 

Jungle Beat Tabs (ver.1)

Washya Tabs
Rating:
0/5 (0 votes)
Jungle Beat lessons Tabs too difficult? Try these video lessons and learn fast
                
Tuning: Standard (ebgDAE)
(Drums enter to set Jungle tone)
Intro
e|-22-xx-22-00-xx-00--------------------|
B|-33-xx-33-22-xx-22--------------------|
G|-22-xx-22-22-xx-22--------------------|
D|----------22-xx-22-22-xx-22-xx-3-xx-5-|
A|----------00-xx-00-22-xx-22-xx-3-xx-5-|
E|-------------------00-xx-00-xx-1-xx-3-|


Verses
e|-------------------------------------------22----222-|
B|-11-xx-11-xx-11-xx----------xx-44-xx-55----44----333-|
G|-22-xx-22-xx-00-xx----------xx-44-xx-55----44----222-|
D|-22-xx-22-xx-22-xx-22-xx-22-xx-22-xx-33-xx-44-xx-----|
A|-------------33----22-xx-22-------------xx-22-xx-----|
E|-------------------00-xx-00-------------xx----xx-----|

Chorus
e|-------------------3332003-------------------33333-xxxx---------3~--|
B|-------------------3333330-22224444------111-33333-xxxx-------0-----|
G|-------------------2222222-22224444------000-00000-xxxx-----2-------|
D|-33333335555522222---------2222222255555-222-00000-xxxx---2---------|
A|-33333335555522222---------0000----55554-333-22222-xxxx-0-----------|
E|-11111113333300000-----------------33333-----33333-xxxx-------------|


Guitar Solo
e|-17b-17-15-17-14b-12h13-19-18-16-14--------------------------------------|
B|------------------------------------12-14-12----12~----------------------|
G|---------------------------------------------14-----------------------7--|
D|-----------------------------------------------------------3-5-5h7h8b----|
A|----------------------------------------------------3b-3-5---------------|
E|-------------------------------------------------------------------------|


e|-------------------------------------------------9-9b-9-10-12b-10------|
B|----------------------------------------------10------------------12---|
G|-5----------------------------7-------9b-7~-7--------------------------|
D|---7-5---5---5h7~-/12-11-10-9---9-7-9-9b-------------------------------|
A|-------7---7-----------------------------------------------------------|
E|-----------------------------------------------------------------------|


e|-10----------------------22b-20-18-16-15-13-12-----------------------|
B|----12-10-----------17b------------------------12b-------12-13b------|
G|----------12~-13-15--------------------------------10-12-------------|
D|---------------------------------------------------------------------|
A|---------------------------------------------------------------------|
E|---------------------------------------------------------------------|


e|-------------------------------------------------------------12~-------|
B|-10h12-15151515141414141414131313131313131312121212----------12~-------|
G|----------------------------------------------------10----10-----------|
D|-------------------------------------------------------12--------------|
A|-----------------------------------------------------------------------|
E|-----------------------------------------------------------------------|



e|-----------------------------|
B|-----------------------------|
G|-----------------------------|
D|-----------------------------|
A|-9p7p6--8p6p4-------------2*-|
E|--------------6p4p2h3p2/1----|
            

comments powered by Disqus
↑ Back to top | Washya Tabs for Jungle Beat. Lyrics for acoustic guitar and electric guitar. Tablatures and chords are parodies/interpretations of the original songs. You may use it for private study, scholarship, research or language learning purposes only