» » »

In The Era Of Panic Tabs (ver.1)

Artists:  A B C D E F G H I J K L M N O P Q R S T U V W X Y Z # 

In The Era Of Panic Tabs (ver.1)

Washya
Rating:
0/5 (0 votes)

Hard to play? Try these video lessons and learn fast.
                -----------------------------------------------------------------------------
-----------------------------------------------------------------------------
Tuning: Standard (ebgDAE)
Intro
e|--------------------------------------------|
b|--------------------------------------------|
g|------10------5------10------5--------------|
D|------10------5------10------5------5-7-5-7-|
A|------8-------3------8-------3------5-7-5-7-|
E|-0000----0000---0000----0000---0000-3-5-3-5-|
PM ****    ****   ****    ****   **** 

Main Riff/Chorus
e|------------------------------------------------------------------------|
b|------------------------------------------------------------------------|
g|------------------------------------------------------------------------|
D|------------------------------------------7h8---------------------------|
A|------3h5------5h6-1h3------9h10------7h9-----5h7-----------------------|
E|-0000-----0000---------0000------0000-------------0000-5h6p5-3h5p3-0000-|
PM ****     ****         ****      ****             ****             **** 

Verses
e|-------------------0-----------0---------12*---------|
b|---------------------3-----------5*----------12*-----|
g|-----0-----------4---------6-------5*------------12*-|
D|-------5-------4-------------6-----------------------|
A|---2-----2---2-----------4---------------------------|
E|-0---------0-----------0--------------0--------------|
PM *         *           *              * 

Guitar Solo
e|-------------------------------------------------------9---7-10-12~-|
b|-------------------------------------------7---5-6-7/9---9----------|
g|---------------------------------7---5-6-7---7----------------------|
D|---------------------5---3-4-5/7---7--------------------------------|
A|-----------5---3-4-5---5--------------------------------------------|
E|-/3~-3-4-5---5------------------------------------------------------|
PM  *  * * * * * * * * * * * * * * * * * * * * * * * * * * * 

e|-15-15-15-15-15p12----15-15-15-15-15p12----15-15-15-15p12----|
b|-------------------14-------------------14----------------14-|
g|-------------------------------------------------------------|
D|-------------------------------------------------------------|
A|-------------------------------------------------------------|
E|-------------------------------------------------------------|

e|-17-17-17-17p14----17-17-17-17p14----17-17-17-17p14----18b-18bp16~--|
b|----------------16----------------16----------------16--------------|
g|--------------------------------------------------------------------|
D|--------------------------------------------------------------------|
A|--------------------------------------------------------------------|
E|--------------------------------------------------------------------|

e|-16-17-16-14-16-17-16-14-12--10h12p10h12p10h12-12~-12-13-15-13-12-------|
b|------------------------------------------------------------------15-13-|
g|------------------------------------------------------------------------|
D|------------------------------------------------------------------------|
A|------------------------------------------------------------------------|
E|------------------------------------------------------------------------|

e|-----------------------------------------------------------------|
b|-12--------------------------------------------------------------|
g|----15-13-12-----------------------------------------------------|
D|-------------15-13-12----13-12-----------------------------------|
A|----------------------15-------15-13-12----13-12-----------------|
E|----------------------------------------15-------12-15-13-12-10~-|

e|------------------------------------------------------------------12-13-15|
b|---------------------------------------------------------12-13-15---------|
g|---------------------------------------10-11-13-10-11-13------------------|
D|-------------------------8-9-11-8-9-11------------------------------------|
A|-------------6-7-9-6-7-9--------------------------------------------------|
E|-5-6-8-5-6-8--------------------------------------------------------------|

e|-12-13-15-13/17-15-14-15-18-17-15-17-19-17-16-20b-20b-20b~-|
b|-----------------------------------------------------------|
g|-----------------------------------------------------------|
D|-----------------------------------------------------------|
A|-----------------------------------------------------------|
E|-----------------------------------------------------------|
            
Hard to play? Try these video lessons and learn fast. | Correct




comments powered by Disqus
↑ Back to top | Tablatures and chords are parodies/interpretations of the original songs. You may use it for private study, scholarship, research or language learning purposes only