» » »

Washya, Insanity Tabs (ver.1)

Artists:  A B C D E F G H I J K L M N O P Q R S T U V W X Y Z # 

Insanity Tabs (ver.1)

Washya Tabs
 Rating:
4/5 (4 votes)
Insanity lessons Tabs too difficult? Try these video lessons and learn fast
1
                
Tuning: Drop C (DAFCGC) 
Intro
D|--------------------------------------|
A|-----------------------------------|
F|-----------------------------------|
C|-5-55-45-55-4-5-55----------44-4-5-|
G|-5-55-45-55-4-5-55-------------44-4-5-|
C|-5-55-45-55-4-5-55-------------44-4-5-|

Verses
D|----------------------------------------------------|
A|----------------------------------------------------|
F|----------------------------------------------------|
C|-2-222-2-222-2-2-222-2-2-222-3-2-222-2-222-2-222-23-|
G|-2-222-2-222-2-2-222-2-2-222-3-2-222-2-222-2-222-23-|
C|-2-222-2-222-2-2-222-2-2-222-3-2-222-2-222-2-222-23-|
pm . ... . ... . . ... . . ... . . ... . ... . ... ..

Chorus
D|----------------------------------------------------|
A|-------------------------------------------------|
F|--------7~---------------------------------------|
C|-000-45----000-323-000----------000---2-3-000-00-|
G|-000-45----000-323-000-------------000-1-----000-00-|
C|-000-45----000-323-000-------------000-------000-00-|
pm ...       ...     ...             ...       ... .. 
            
Submit corrections

comments powered by Disqus
↑ Back to top | Washya Tabs for Insanity. Lyrics for acoustic guitar and electric guitar. 1 Tablatures and chords are parodies/interpretations of the original songs. You may use it for private study, scholarship, research or language learning purposes only