» » »

Washya, Im A Broken Shell Tabs (ver.1)

Artists:  A B C D E F G H I J K L M N O P Q R S T U V W X Y Z # 

Im A Broken Shell Tabs (ver.1)

Washya Tabs
 Rating:
4/5 (4 votes)
Im A Broken Shell lessons Tabs too difficult? Try these video lessons and learn fast
1
                -----------------------------------------------------------------------------
             I'm A Broken Shell - Washya
-----------------------------------------------------------------------------
Tuning: Standard (EBGDAE)
Intro
E|-------------------------------------------------------------------------|
B|-------------------------------------------------------------------------|
G|-7p5h7----------7p5h7---------7p5h7-------------3----7p5h7---------------|
D|-------6p5p3----------6p5p3---------6p5p3---3-----5--------6p5p3---------|
A|-------------5--------------5-------------5---5------------------77-77-2-|
E|-----------------------------------------------------------------55-55-0-|
PM                                                                 ** ** * 

Verses
E|---------------------------------------|
B|---------------------------------------|
G|-----11b-11b-----11b-11b---------------|
D|-----11b-11b-----11b-11b---------------|
A|-222---------222---------222-----------|
E|-000---------000---------000-3h5p3p2p0-|
PM ***         ***         *** ********* 

Chorus
E|--------------------------------------------------------------------|
B|-------------------8p7----------------------------------------------|
G|-7p5h7-8p7p5---5-----------------------------7*---------------------|
D|-------------7---7-----7p5h7-8p7p5---9----------7p5h7---------------|
A|-----------------------------------7---7-7h9----------6p5p3-55-55-2-|
E|------------------------------------------------------------33-33-0-|
PM                                                            ** ** * 

Guitar Solo (short and fast)
E|----------15-15----15----14----15----14----15p14-18p15----------------|
B|------/12-------12----12----12----12----12-------------18p15----------|
G|-/9b---------------------------------------------------------18p17p15-|
D|----------------------------------------------------------------------|
A|----------------------------------------------------------------------|
E|----------------------------------------------------------------------|

E|-18p15----------------18p15-------------17~----------18p17p15-----------|
B|-------18p15----------------18p15h18p15-----18p17p15----------18p17p15--|
G|-------------18p17p15---------------------------------------------------|
D|------------------------------------------------------------------------|
A|------------------------------------------------------------------------|
E|------------------------------------------------------------------------|

E|-19p18p16----------17h18h19h20~-----|
B|----------19p18p16--------------19\-|
G|------------------------------------|
D|------------------------------------|
A|------------------------------------|
E|------------------------------------|

Chorus
E|--------------------------------------------------------------------|
B|-------------------8p7----------------------------------------------|
G|-7p5h7-8p7p5---5-----------------------------7*---------------------|
D|-------------7---7-----7p5h7-8p7p5---9----------7p5h7---------------|
A|-----------------------------------7---7-7h9----------6p5p3-55-55-2-|
E|------------------------------------------------------------33-33-0-|
PM                                                            ** ** * 

Verses
E|---------------------------------------|
B|---------------------------------------|
G|-----11b-11b-----11b-11b---------------|
D|-----11b-11b-----11b-11b---------------|
A|-222---------222---------222-----------|
E|-000---------000---------000-3h5p3p2p0-|
PM ***         ***         *** ********* 
            
Submit corrections

comments powered by Disqus
↑ Back to top | Washya Tabs for Im A Broken Shell. Lyrics for acoustic guitar and electric guitar. 1 Tablatures and chords are parodies/interpretations of the original songs. You may use it for private study, scholarship, research or language learning purposes only