» » »

Iceland Warrior Tabs (ver.1)

Artists:  A B C D E F G H I J K L M N O P Q R S T U V W X Y Z # 

Iceland Warrior Tabs (ver.1)

Washya
Rating:
0/5 (0 votes)

Hard to play? Try these video lessons and learn fast.
                Tuning: Drop C
Intro
F|-----------0-------------0-3--------|
A|---------8---0---------8-----3-5-2--|
D|-------7-----------7-0--------------|
C|-----5---------0-5------------------|
G|---0--------------------------------|
C|-0----------------------------------|

Verses
F|---------0------------------------3--|
A|----------0---------------------0-3--|
D|-------5----5---------------2-5------|
C|-----2--------2-----2-----0----------|
G|---0--------------0-----3------------|
C|-0--------------0-----3--------------|

Chorus
F|----------------------------------------|
A|----------------------------------------|
D|----------------------9/7------------7~-|
C|-5/6\5-5/6~-0-2-676-------7/5-----10----|
G|-x-x-x-x----0-2-676-----------5/7-------|
C|-5/6\5-5----0-2-676---------------------|
            
Hard to play? Try these video lessons and learn fast. | Correct




comments powered by Disqus
↑ Back to top | Tablatures and chords are parodies/interpretations of the original songs. You may use it for private study, scholarship, research or language learning purposes only