» » »

Hungry Tabs (ver.1)

Artists:  A B C D E F G H I J K L M N O P Q R S T U V W X Y Z # 

Hungry Tabs (ver.1)

Washya
Rating:
0/5 (0 votes)

Tabs too difficult? Try these video lessons and learn fast.
                Tuning: Standard (EADGBe) 
Intro
e|-----------------------------------------------------------------|
B|-----------------------------------------------------------------|
G|---------------------------------------------------------3-------|
D|-----3-------3-------3-------3-------5-----------3-----------3-5-|
A|-3-5---5-3-5---5-3-5---5-3-5---5-3-5---5-3-5-3-5---5-3-5---5-3-5-|
E|-------------------------------------------------------------1-3-|
pm . .   . . .   . . .   . . .   . . .   . . . . .   . . .   .     

Verses (Play very Fast)
e|-------------------------------------------------------------------------|
B|-------------------------------------------------------------------------|
G|-------------------------------------------------------------------------|
D|-------------------------------------------------------------------------|
A|-------------------------------------------------------------------------|
E|-3-3-3-3-3-3-3-3-3-5-5-5-5-5-5-5-5-5-1-1-1-1-1-1-1-1-1-1-3-3-3-3-3-3-3-3-|
pm . . . . . . . . . . . . . . . . . . . . . . . . . . . . . . . . . . . . 

Chorus
e|-------------------------------------------------------------|
B|-------------------------------------------------------------|
G|---------5-5-5-5---------4-4-4-4-7-7-7-7---------------3-3-3-|
D|-3-3-3-3-5-5-5-5-2-2-2-2-4-4-4-4-7-7-7-7-7-7-7-7-4-4-4-3-3-3-|
A|-3-3-3-3-3-3-3-3-2-2-2-2-2-2-2-2-5-5-5-5-7-7-7-7-4-4-4-1-1-1-|
E|-1-1-1-1---------0-0-0-0-----------------5-5-5-5-2-2-2-------|
            
Tabs too difficult? Try these video lessons and learn fast.




comments powered by Disqus
↑ Back to top | Tablatures and chords are parodies/interpretations of the original songs. You may use it for private study, scholarship, research or language learning purposes only