» » »

Washya, Highways Of Hell Tabs (ver.1)

Artists:  A B C D E F G H I J K L M N O P Q R S T U V W X Y Z # 

Highways Of Hell Tabs (ver.1)

Washya Tabs
Rating:
0/5 (0 votes)
Hard to play? Try these video lessons and learn fast.
                -------------------------------------------------------------------------------
-------------------------------------------------------------------------------
Tuning: Standard (ebgDAE)
Intro
e|----------------------------------------|
b|----------------------------------------|
g|----------------------------------------|
D|-------13-12----------12----------------|
A|-------------14-15-14-------------------|
E|-12-14-------------------15-14-12-10-12-|
PM ** ** ** ** ** ** ** ** ** ** ** ** ** 

Verse 1
e|-----------------------------------------------------------------------|
b|-----------------------------------------------------------------------|
g|--------------------------------------5------------------------------3-|
D|--------------------------------------5------------------------------3-|
A|------------------------------------2-3----------------------------2-1-|
E|-0-0-0-00-0-0-000-0-0-0-0-000-0-0-0-0-3-0-0-0-00-0-0-000-0-0-0-0-000-1-|
PM * * * ** * * *** * * * * *** * * *     * * * ** * * *** * * * * ** 

Intro
e|----------------------------------------|
b|----------------------------------------|
g|----------------------------------------|
D|-------13-12----------12----------------|
A|-------------14-15-14-------------------|
E|-12-14-------------------15-14-12-10-12-|
PM ** ** ** ** ** ** ** ** ** ** ** ** ** 

Verse 2
e|-------------------------------------------------------------------|
b|-------------------------------------------------------------------|
g|-------------------------------------------------------------------|
D|---------------------------------5---------------------------------|
A|--------------2-7--------------2-3-------------2-3-------------2-5-|
E|-000-0-0-0000-0-5-000-0-0-0000-0---000-00-0000-0-1-000-00-0000-0-3-|
PM *** * * ****     *** * * ****     *** ** ****     *** ** ****  

Intro
e|----------------------------------------|
b|----------------------------------------|
g|----------------------------------------|
D|-------13-12----------12----------------|
A|-------------14-15-14-------------------|
E|-12-14-------------------15-14-12-10-12-|
PM ** ** ** ** ** ** ** ** ** ** ** ** ** 

Guitar Solo
e|----------------------------------------10-------15~-15h18p15----------|
b|--------------------------8-10-12-13-12----12-13--------------18p17h18-|
g|-333333333/555555555---10----------------------------------------------|
D|-666666666/888888888-8-------------------------------------------------|
A|-----------------------------------------------------------------------|
E|-----------------------------------------------------------------------|

e|-16----18h19p18-16----18-16----18-16----18-20-20b~--|
b|----17-------------17-------17-------17-------------|
g|----------------------------------------------------|
D|----------------------------------------------------|
A|----------------------------------------------------|
E|----------------------------------------------------|
            

comments powered by Disqus
↑ Back to top | Washya Tabs for Highways Of Hell. Lyrics for acoustic guitar and electric guitar. Tablatures and chords are parodies/interpretations of the original songs. You may use it for private study, scholarship, research or language learning purposes only