» » »

Washya, Highway Man Tabs (ver.1)

Artists:  A B C D E F G H I J K L M N O P Q R S T U V W X Y Z # 

Highway Man Tabs (ver.1)

Washya Tabs
 Rating:
4/5 (4 votes)
Highway Man lessons Tabs too difficult? Try these video lessons and learn fast
                Tuning: Drop D

Intro
e|-----------------------------------------------------------------|
B|-----------------------------------------------------------------|
G|-----------------------------------------------------------------|
D|-----------------------------------------------------------------|
A|-0-3-5---5---5---5---5-3-3-5---5---5---5---5---3-3-3-2-2-2-1-1-1-|
D|-------0---0---0---0---------0---0---0---0---0-3-3-3-2-2-2-1-1-1-|
pm       .   .   .   .         .   .   .   .   . 

Verses
e|------------------------------------------|
B|------------------------------------------|
G|-----5b----------7b----------2b-2-0-------|
D|--------3-----------5---------------2-----|
A|--------3-----------5-----------------2---|
D|-0-0----3--3-3-3----5--5-5-5------------0-|
pm . .       . . .       . . .            .  

Chorus
e|---------------------------------------------------------------------|
B|---------------------------------------------------------------------|
G|---------------------------8--888-8-888-8-4-444-4-444-4--------------|
D|-222-2-222-2-5-555-5-555-5-8--888-8-888-8-4-444-4-444-4--------------|
A|-222-2-222-2-5-555-5-555-5-6--666-6-666-6-2-222-2-222-2--------------|
D|-222-2-222-2-5-555-5-555-5-----------------------------111-1-111-1-1-| 
pm                                                       ... . ... . .  
            
Submit corrections

comments powered by Disqus
↑ Back to top | Washya Tabs for Highway Man. Lyrics for acoustic guitar and electric guitar. Tablatures and chords are parodies/interpretations of the original songs. You may use it for private study, scholarship, research or language learning purposes only