» » »

Washya, Hellraiser Tabs (ver.1)

Artists:  A B C D E F G H I J K L M N O P Q R S T U V W X Y Z # 

Hellraiser Tabs (ver.1)

Washya Tabs
Rating:
0/5 (0 votes)
Hellraiser lessons Tabs too difficult? Try these video lessons and learn fast
                -----------------------------------------------------------------------------
-----------------------------------------------------------------------------
Tuning: Standard (ebgDAE)
Intro
e|-----------------------------------------------------------------|
b|-----------------------------------------------------------------|
g|-----------------------------------------------------------------|
D|--------------------------------------------------------9~-------|
A|-----5-----5-----5-----7-----7-----7------9------9---------55432-|
E|-3-6---3-6---3-6---5-8---5-8---5-8---7-10---7-10---7-10----33210-|
pm * * * * * * * * * * * * * * * * * * * ** * * ** * * **    ***** 

Main Riff/Chorus 
Part 1 x3               Part 2  x1
e|-----------------|-----------------|
b|-----------------|-----------------|
g|-----------------|-----------------|
D|---------------3-|---------------0-|
A|---2p1-----1h2---|--2p1------1h2---|
E|-0-----0h3-------|-0-----0h3-------|
PM * *** *** ***     * *** *** *** 

Verses
e|-------------------------------------------------------------------------|
b|-------------------------------------------------------------------------|
g|-------------------------------------------------------------------------|
D|-----------------------------------3~----------------------------------0-|
A|-----3-----8-----5-----7\6-----1h2-------3-----8-----5-----8\7-----1h2---|
E|-000---000---000---000-----000-------000---000---000---000-----000-------|
PM ***   ***   ***   ***     *** ***   ***   ***   ***   ***     *** ***  

Guitar Solo
e|--------------------------------------------14~-14b-14p12p11-14p12p11-|
b|--------------------------------12-10-14p12---------------------------|
g|------------------7---9-7/10-12---------------------------------------|
D|------5---7-5/7-9---9-------------------------------------------------|
A|-/5-7---7-------------------------------------------------------------|
E|----------------------------------------------------------------------|
PM  * * * * * * * * * * * * ** ** ** ** ***** 

e|-14p12p11-14p12p11-15p14p12-15p14p12-15p14p12-15p14p12-15b-15b-15b~\--|
b|----------------------------------------------------------------------|
g|----------------------------------------------------------------------|
D|----------------------------------------------------------------------|
A|----------------------------------------------------------------------|
E|----------------------------------------------------------------------|
            
Submit corrections

comments powered by Disqus
↑ Back to top | Washya Tabs for Hellraiser. Lyrics for acoustic guitar and electric guitar. Tablatures and chords are parodies/interpretations of the original songs. You may use it for private study, scholarship, research or language learning purposes only