» » »

Washya, Heavens Gate Bass tabs (ver.1)

Artists:  A B C D E F G H I J K L M N O P Q R S T U V W X Y Z # 

Heavens Gate Bass tabs (ver.1)

Washya Tabs
Rating:
0/5 (0 votes)
Hard to play? Try these video lessons and learn fast.
                Heavens Gate bass tab

Intro
G|---------------------------------------------------------------|
D|---------------------------------------------------------------|
A|---------------------------------------------------------------|
D|-3-5-6-5-3-5-3-5-3-x-3-5-6-5-3-5-3-5-3-5-1-1-0-----------------|

Verses
G|-----------------------------------------------------------------------|
D|-----------------------------------------------------------------------|
A|---7h8-------5h7p5~---------3h5-----7h8p7h8p7--------------------------|
D|-0-----0-0-0--------0-0-0-0-----0-0------------------------------------|

During Solo
G|-------------------------------------------------------------------|
D|-------------------------------------------------------------------|
A|---------3-2-0-3-2-0-2-2-2-2-------------2-2-2-2-1-1-0-------------|
D|-1-0-1-0---------------------3-3-3-3-3-3---------------------------|
            

comments powered by Disqus
↑ Back to top | Washya Bass for Heavens Gate. Lyrics for acoustic guitar and electric guitar. Tablatures and chords are parodies/interpretations of the original songs. You may use it for private study, scholarship, research or language learning purposes only