» » »

Heavens Gate Tabs (ver.1)

Artists:  A B C D E F G H I J K L M N O P Q R S T U V W X Y Z # 

Heavens Gate Tabs (ver.1)

Washya
Rating:
0/5 (0 votes)

Hard to play? Try these video lessons and learn fast.
                			     Heaven's Gate - Washya

Tuning: Drop D (DADgbe)
Main Riff/Intro (Heavy Distortion)
e|--------------------------------------------------------------------------|
B|--------------------------------------------------------------------------|
G|--------------------------------------------------------------------------|
D|-3-5-6-5-3-5-3-5-3-x-x-3-5-6-5-3-5-3-5-1-0--------------------------------|
A|-3-5-6-5-3-5-3-5-3-x-x-3-5-6-5-3-5-3-5-1-0--------------------------------|
D|-3-5-6-5-3-5-3-5-3-x-x-3-5-6-5-3-5-3-5-1-0--------------------------------|



Verses
e|--------------------------------------------------------------------------|
B|--------------------------------------------------------------------------|
G|--------------------------------------------------------------------------|
D|--------------------------------------------------------------------------|
A|---------7h8-----5h7-----3h5-----7h8p7-5h7p5-3h5-5~-----------------------|
D|-0-0-0-0-----0-0-----0-0-----0-0------------------------------------------|


Solo
e|--------------------------------------------------7-----------------------|
B|---------------------------------6-5----------7h9---9-7---7-9~//----------|
G|--------------6-5-3---3-5~//-5h7-----7-5-7~//-----------8-----------------|
D|-----3~//-----------5-----------------------------------------------------|
A|-3h5------3h5-------------------------------------------------------------|
D|--------------------------------------------------------------------------|



e|--------------------------------------------------------------------------|
B|--------------------------------------------------------------------------|
G|-----------------------------------------10----10-------------------------|
D|---------------------10----10-12b~-10-12----12----11-10-------------------|
A|-12-12-12b-10~-10-12----12------------------------------11-10-8~----------|
D|--------------------------------------------------------------------------|
            
Hard to play? Try these video lessons and learn fast. | Correct




comments powered by Disqus
↑ Back to top | Tablatures and chords are parodies/interpretations of the original songs. You may use it for private study, scholarship, research or language learning purposes only