» » »

Washya, Gutterball Tabs (ver.1)

Artists:  A B C D E F G H I J K L M N O P Q R S T U V W X Y Z # 

Gutterball Tabs (ver.1)

Washya Tabs
 Rating:
4/5 (4 votes)
Gutterball lessons Tabs too difficult? Try these video lessons and learn fast
                Tuning: Drop B (BF#BEG#C#)

Intro (palm mute bass notes)
B|--------0-----------0---------------0------------3----------------3--|
F#|-----------0-----------0---------3------------3-----------0----0----|
B|----------0-----------0---------------3------------3-----------------|
E|-------------------------------0-----------0------------0------------|
G#|---0------------0---------0------------0---------------------0------|
C#|-0------------0-------------0---------------0-------0---------------|
pm  .            .             .               .       .

Verses
B|--0-----3---------0----------------------0-----3------0-----------3---3-|
F#|-----3---0---------0------------------------3----------0-------0---0---|
B|----0---------0-------3--------------------2-------0----------2---------|
E|------------3-------------3----------0-----------0----------2-----------|
G#|---------------------------0-3p2p0-----------------------0-------------|
C#|-----------------------0--------------3--------------------------------|

Chorus
B|-------------------------------------------------------|
F#|------------------------------------------------------|
B|-------------------------------------------------------|
E|-----------3-5-55-9-7-------------------5-555----------|
G#|-5----3-5-3-3-33-7-5--------0----0-5-7-3-333-333221-0-|
C#|-5-55-3-5------------666532-0-00-0-5-7-------333221-0-|
pm    ..                ......   .. 

Small Solo
B|-----------------------17b-17b-17b-17b-15~-|
F#|-12~-12/14b--14-12-14---------------------|
B|-------------------------------------------|
E|-------------------------------------------|
G#|------------------------------------------|
C#|------------------------------------------|

Verses
B|--0-----3---------0----------------------0-----3------0-----------3---3-|
F#|-----3---0---------0------------------------3----------0-------0---0---|
B|----0---------0-------3--------------------2-------0----------2---------|
E|------------3-------------3----------0-----------0----------2-----------|
G#|---------------------------0-3p2p0-----------------------0-------------|
C#|-----------------------0--------------3--------------------------------|
            
Submit corrections

comments powered by Disqus
↑ Back to top | Washya Tabs for Gutterball. Lyrics for acoustic guitar and electric guitar. Tablatures and chords are parodies/interpretations of the original songs. You may use it for private study, scholarship, research or language learning purposes only