» » »

Washya, Guide To Better Living Tabs (ver.1)

Artists:  A B C D E F G H I J K L M N O P Q R S T U V W X Y Z # 

Guide To Better Living Tabs (ver.1)

Washya Tabs
 Rating:
4/5 (4 votes)
Guide To Better Living lessons Tabs too difficult? Try these video lessons and learn fast
                			     Guide To Better Living - Grinspoon

By Josh

Tuning: Drop D
1. Pressure Tested 1984
Intro/Verses
e|--------------------|
B|--------------------|
G|--------------------|
D|-6-5-0-5-5-6-5-0-5--|
A|-6-5-0-5-5-6-5-0-5--|
D|-6-5-0-5-5-6-5-0-5--|

Part2
e|--------------------------------------|
B|--------------------------------------|
G|--------------------------------------|
D|-10-12-10-12-10-12-10-12-10-12-10-13~-|
A|-10-12-10-12-10-12-10-12-10-12-10-13~-|
D|-10-12-10-12-10-12-10-12-10-12-10-13~-|

Part 3 (Chorus)
e|-------------------------------------|
B|-------------------------------------|
G|-------------------------------------|
D|-12-0-6-5-0-12-0-6-5-0-5-5-5-5-5-----|
A|-12-0-6-5-0-12-0-6-5-0-5-5-5-5-5-----|
D|-12-0-6-5-0-12-0-6-5-0-5-5-5-5-5-----|

2. Boundary
Intro
e|----------|
B|----------|
G|----------|
D|-12-11-10-|
A|-12-11-10-|
D|-12-11-10-| x Many

Chorus
e|----------------|
B|----------------|
G|----------------|
D|-12-12-12-9-9-9-|
A|-12-12-12-9-9-9-|
D|-12-12-12-9-9-9-|

Verses
e|---------------------------------------------------|
B|---------------------------------------------------|
G|---------------------------------------------------|
D|-12-12-15-15-15-12-12-15-15-15-10-10-10-10-3-3-7-5-|
A|-12-12-15-15-15-12-12-15-15-15-10-10-10-10-3-3-7-5-|
D|-12-12-15-15-15-12-12-15-15-15-10-10-10-10-3-3-7-5-|


3. DCX3
Intro
e|--------------------------|
B|--------------------------|
G|--------------------------|
D|-3-3-3-5-5-5--3-3-3-5-5-5-|
A|-3-3-3-5-5-5--3-3-3-5-5-5-|
D|-3-3-3-5-5-5--3-3-3-5-5-5-|

Verses
e|----------------------------------|
B|----------------------------------|
G|----------------------------------|
D|-3-0-0-5-0-0-6-0-0-5-0-5/12-12-12-|
A|-3-0-0-5-0-0-6-0-0-5-0-5/12-12-12-|
D|-3-0-0-5-0-0-6-0-0-5-0-5/12-12-12-|

Chorus
e|--------------|
B|--------------|
G|--------------|
D|-3-3-3--5-5-5-|
A|-3-3-3--5-5-5-|
D|-3-3-3--5-5-5-|

Solo
e|------------------------------------11b-11b-11b~--13-13-13~-|
B|-1-2-2-2-3-3-3-4-5-6-7-8-9-10-11-11-12b-12b-12b~------------|
G|-1-2-2-2-3-3-3-4-5-6-7-8-9-10-11----------------------------|
D|------------------------------------------------------------|
A|------------------------------------------------------------|
D|------------------------------------------------------------|

e|-13-13~-15-13-12-13-15-13-12----------------------------11b-11b-11b~--|
B|-----------------------------15-13-12----------15-13-12-12b-12b-12b~--|
G|--------------------------------------12-13-15------------------------|
D|----------------------------------------------------------------------|
A|----------------------------------------------------------------------|
D|----------------------------------------------------------------------|

e|-13b-13b-13bv~~~~~-|
B|-------------------|
G|-------------------|
D|-------------------|
A|-------------------|
D|-------------------|

4. Sickfest
Intro
e|-----------------|
B|-----------------|
G|-------------3---|
D|-------------3-3-|
A|-5p3p0-5p3p0-1-3-|
D|---------------3-|x many

Verses
e|-----------------------------------|
B|-----------------------------------|
G|-----------------------------------|
D|-0-0-0-0-3-7/5-3-------------------|
A|-0-0-0-0-3-5/3-3-------------------|
D|-0-0-0-0-3-----3-0-3-5-6-5-3-0-0-3-|
pm . . . .         . . . . . . . . .

Chorus
e|--------------------------------|
B|--------------------------------|
G|--------------------------------|
D|--------------------------------|
A|------------5p3p0---------3-4-5-|
D|-0-0-0-0-3--------3-5-3-5-------|

Bridge ("break you down!!")
e|-------------------------------------|
B|-------------------------------------|
G|-------------------------------------|
D|-0-0-0-0--0---0-0-0-0--0--0-0-0-0--1-|
A|-0-0-0-0--0---0-0-0-0--0--0-0-0-0--1-|
D|-0-0-0-0--0---0-0-0-0--0--0-0-0-0--1-|
pm . . . .  .   . . . .  .  . . . . 


Solo
e|-12-13-15-13-12h13p12-------------------------------------|
B|----------------------15-13-12----------------------------|
G|-------------------------------12h14p12----12----------7--|
D|----------------------------------------15----15-14-12----|
A|----------------------------------------------------------|
D|----------------------------------------------------------|

e|----------------------------------------------------------|
B|-12b-10--12h13-10h13p12h13p12h13-10\----------------------|
G|-12b-10---------------------------------------------------|
D|----------------------------------------------------------|
A|----------------------------------------------------------|
D|----------------------------------------------------------|

Outro
e|-----------|
B|-----------|
G|-----------|
D|-0-0-0-0-3-|
A|-0-0-0-0-3-|
D|-0-0-0-0-3-|

5. Railrider 
Intro (BASS first)
Guitar
e|-------------------------|
B|-------------------------|
G|-------------------------|
D|-------------------------|
A|---3-5-----3---3-5---3-2-|
D|-0-----0-3---0-----0-----|

Then
e|-----------------------------------------------------|
B|-----------------------------------------------------|
G|-----------------------------------------------------|
D|-----------------0-0-0-3-0-0-0-3-0-2-3-0-3-2-0-0-0-3-|
A|-3-3-3-3-3-3-3-3-0-0-0-3-0-0-0-3-0-2-3-0-3-2-0-0-0-3-|
D|-----------------0-0-0-3-0-0-0-3-0-2-3-0-3-2-0-0-0-3-|
pm                 . . .   . . .               . . .  

Part C
e|-------------------------------|
B|-------------------------------|
G|-------------------------------|
D|-0-3-2-3-6-5-3-0-3-2-3-8-8-8-8-|
A|-0-3-2-3-6-5-3-0-3-2-3-8-8-8-8-|
D|-0-3-2-3-6-5-3-0-3-2-3-8-8-8-8-|

Solo
e|-------------------|
B|-------------------|
G|-------------------|
D|-------------------|
A|---4-4-4-----4---2-|
D|-2-------2-2---2---|


6. Scalped 
Intro
e|--------------------------------------|
B|--------------------------------------|
G|--------------------------------------|
D|-2-2-2-2-2-9-9-9-9-9-10-10-10-9-9-9-9-|
A|-2-2-2-2-2-9-9-9-9-9-10-10-10-9-9-9-9-|
D|-2-2-2-2-2-9-9-9-9-9-10-10-10-9-9-9-9-|

Verses
e|-----------|
b|-----------|
g|-----------|
D|-2~-9~-10~-|
A|-2~-9~-10~-|
D|-2~-9~-10~-|

Chorus
e|---------------------------------------------------|
b|---------------------------------------------------|
g|---------------------------------------------------|
D|-12-12-12-12-12-13-10-10-10-10-10-11-9-9-9-7-7-7-7-|
A|-12-12-12-12-12-13-10-10-10-10-10-11-9-9-9-7-7-7-7-|
D|-12-12-12-12-12-13-10-10-10-10-10-11-9-9-9-7-7-7-7-|


7. Pedestrian
Intro/Main Riff
e|---------------------------------|
b|---------------------------------|
g|-------------------------3-3-3---|
D|-0-2-3-0-2-3-0-2-3-0-2-3-3-3-3---|
A|-0-2-3-0-2-3-0-2-3-0-2-3-1-1-1---|
D|-0-2-3-0-2-3-0-2-3-0-2-3-------0-|

Verses
e|------------------------------|
b|------------------------------|
g|------------------------------|
D|-3-5-5-5-5-5-3--3-5-5-5-5-5-3-|
A|-3-5-5-5-5-5-3--3-5-5-5-5-5-3-|
D|-3-5-5-5-5-5-3--3-5-5-5-5-5-3-|

8. Just Ace
Intro/Main riff
e|-3-----------------3--3---------------------|
B|---3-5---------3-5------3-5---------3-5-0---|
G|-------4-4-4-5--------------4-4-4-5---------|
D|--------------------------------------------|
A|--------------------------------------------|
D|--------------------------------------------| x 2

Verses
e|-----------------------|
B|-----------------------|
G|-----------------------|
D|-----------------------|
A|-7-7-7-5-5-5-2-2-5-5-5-|
D|-5-5-5-5-5-5-2-2-5-5-5-|


9.Post Enebriated Anxiety
Intro
e|-------------------------------------|
b|-------------------------------------|
g|-------------------------------------|
D|-3-5-5--3-5-5--3-5-3-5--3-5-5--3-5-5-|
A|-3-5-5--3-5-5--3-5-3-5--3-5-5--3-5-5-|
D|-3-5-5--3-5-5--3-5-5-5--3-5-5--3-5-5-|

Verses
e|---------------------------|
b|---------------------------|
g|---------------------------|
D|-0-2-3-0-2-3-0-2-3-0-2-3-5-|
A|-0-2-3-0-2-3-0-2-3-0-2-3-5-|
D|-0-2-3-0-2-3-0-2-3-0-2-3-5-|

10. Repeat
Intro
e|---------------------------------------------|
b|---------------------------------------------|
g|---------------------------------------------|
D|-5-3-0-2-3-2-0-0-2-0-6-5-2-3-2-0-2-3-2-0-6-6-|
A|-5-3-0-2-3-2-0-0-2-0-6-5-2-3-2-0-2-3-2-0-6-6-|
D|-5-3-0-2-3-2-0-0-2-0-6-5-2-3-2-0-2-3-2-0-6-6-|

Verses
e|---------------------------------------------------------|
b|---------------------------------------------------------|
g|---------------------------------------------------------|
D|-0-2-0-3-2-x-x-x-x-0-2-0-3-3-x-x-x-x-0-2-0-3-2-0-2-3-2-0-|
A|-0-2-0-3-2-x-x-x-x-0-2-0-3-3-x-x-x-x-0-2-0-3-2-0-2-3-2-0-|
D|-0-2-0-3-2-x-x-x-x-0-2-0-3-3-x-x-x-x-0-2-0-3-2-0-2-3-2-0-|

Bridge
e|-------------------------------------------------------------------------|
b|-------------------------------------------------------------------------|
g|-------------------------------------------------------------------------|
D|-6-6-6-6-6-6-6--6-6-6-6-6-6-6--0-0-0-0-0-0-0--6-6-6-6-6-6-6-6--0-2-3-2-3-|
A|-6-6-6-6-6-6-6--6-6-6-6-6-6-6--0-0-0-0-0-0-0--6-6-6-6-6-6-6-6--0-2-3-2-3-|
D|-6-6-6-6-6-6-6--6-6-6-6-6-6-6--0-0-0-0-0-0-0--6-6-6-6-6-6-6-6--0-2-3-2-3-|

11. NBT
Intro/verses
e|--------------------------|
b|--------------------------|
g|--------------------------|
D|-4-4-4-4-5-4--7-7-7-7-8-7-|
A|-4-4-4-4-5-4--7-7-7-7-8-7-|
D|-4-4-4-4-5-4--7-7-7-7-8-7-|play many

Part B
e|----------------------------------|
b|----------------------------------|
g|----------------------------------|
D|-4-4-4-4-5-4-6-6--4-4-4-4-5-4-6-6-|
A|-4-4-4-4-5-4-6-6--4-4-4-4-5-4-6-6-|
D|-4-4-4-4-5-4-6-6--4-4-4-4-5-4-6-6-|


12. Don't Go Away
Intro
e|-------------------------|
b|-------------------------|
g|-------------------9-9-9-|
D|-7-7-7-9-9-9-7-7-7-------|
A|-7-7-7-------7-7-7-------|
D|-7-7-7-------7-7-7-------|

Chorus
e|-------------------------------------------------|
b|-------------------------------------------------|
g|-------------------------------------------------|
D|-5-5-5-3-3-3-7-7-7-------------------------------|
A|-5-5-5-3-3-3-7-7-7-------------------------------|
D|-5-5-5-3-3-3-7-7-7/10-10-10-10-10-10-10-10-10-10-|

Interlude 
e|--------------------------------|
b|--------------------------------|
g|--------------------------------|
D|-3-4-5-3-4-5-3-4-5-3-4-5-3-8-10-|
A|-3-4-5-3-4-5-3-4-5-3-4-5-3-8-10-|
D|-3-4-5-3-4-5-3-4-5-3-4-5-3-8-10-|

e|--------------------------------------|
b|--------------------------------------|
g|--------------------------------------|
D|-3-4-5-3-4-5-3-4-5-3-4-5-12-11-11-10\-|
A|-3-4-5-3-4-5-3-4-5-3-4-5-12-11-11-10\-|
D|-3-4-5-3-4-5-3-4-5-3-4-5-12-11-11-10\-|

Solo
e|--------------------------|
b|--------------------------|
g|-10-9-10-10-12-15-14-17~\-|
D|--------------------------|
A|--------------------------|
D|--------------------------|

13. Balding Matters
Intro
e|-----------------------------------------------------|
b|-----------------------------------------------------|
g|-----------------------------------------------------|
D|-0-3-5-0-3-5-0-3-5-0-3-0-3-5-0-3-5-0-3-5-10-10-10-10-|
A|-0-3-5-0-3-5-0-3-5-0-3-0-3-5-0-3-5-0-3-5-10-10-10-10-|
D|-0-3-5-0-3-5-0-3-5-0-3-0-3-5-0-3-5-0-3-5-10-10-10-10-|

Chorus
e|---------------------------------|
b|---------------------------------|
g|---------------------------------|
D|-12-12-12-10-10-10-3-3-3-3-3-3-3-|
A|-12-12-12-10-10-10-3-3-3-3-3-3-3-|
D|-12-12-12-10-10-10-3-3-3-3-3-3-3-|

Interlude
e|--------------------------|
b|--------------------------|
g|--------------------------|
D|-0~-1-0-3-1-1-3-3-1-0-1-3-|
A|-0~-1-0-3-1-1-3-3-1-0-1-3-|
D|-0~-1-0-3-1-1-3-3-1-0-1-3-|

14. Bad Funk Stripe 
Intro

(repeat w/ad lib 4 times)
|--3-3-3-3-3----3-3-3-3----0-0-0-0----0-0-0-0--|
|--3-3-3-3-3----3-3-3-3----1-1-1-1----1-1-1-1--|
|--0-0-0-0-0----0-0-0-0--2-2-2-2-2--0-0-0-0-0--|
|--0---0-0-0----0-0-0-0--2-2-2-2-2--2-2-2-2-2--|
|--2---2-2-2----x-x-x-x--0-0-0-0-0--3-3-3-3-3--|
|--3---3-3-3--2-2-2-2-2------------------------|

I'm a small portion of the sampled origin
Seems like your kickin it back to the policemen
I need a breath of fresh air so we can clear the air
Importance for your labels


Verses

(repeat w/ad lib)
|--0-0-0-0-0--0-0-0-0-0--3-3-3-3-3--3-3-3-3-3--|
|--1-1-1-1-1--1-1-1-1-1--3-3-3-3-3--3-3-3-3-3--|
|--2-2-2-2-2--0-0-0-0-0--0-0-0-0-0--0-0-0-0-0--|
|--2-2-2-2-2--2-2-2-2-2--0-0-0-0-0--0-0-0-0-0--|
|-------------3-3-3-3-3--2-2-2-2-2--x-x-x-x-x--|
|------------------------3-3-3-3-3--2-2-2-2-2--|


Kick the flipper on the goldmark twilight
Kick the flipper so I can see my light
I screamed hooray for flashing Bad Funk Stripe
Screamed hooray for flashing Bad Funk

2. Bad vibes from the slide tribe seems
You got your wires crossed when you tried to fix the toasted
But the boasting felt like karate
Rolled with the punches and a blow up vercace
We really need gravel rash
Step on the gas
Give all the hash
Rollin up, pretty smashed
Step on the gas we all need gravel, yer

3. Well there's a crazy situation on the seventh floor
I'm in an argument forever with the lady in the down stairs
Left operator lift me up better
I know you do it well cos I've seen you when your in the rain
And your pain won't go back
Cos i know it
You try everything to tell me that you know it
You know, I know, you know
A Bad Funk Stripe


Chorus

w/finger style

|----------------------------3-----------3--------|
|------1-1p0---------1-------3-3-----3---3-3---3--|
|------------2-0---------0-------0-----------0----|
|----2-------------2---2--------------------------|
|--0---0---------3--------------------------------|
|--------------------------3-------2---2----------|


|---------------------------3s5s3------------3-------|
|-----1-1-0---------1-------3s5s3-3-----3----3-3---3-|
|-----------2-0---------0-----------0------------0---|
|---2-------------2---2------------------------------|
|-0---0---------3------------------------------------|
|-------------------------3-----------2----2---------|


Solo

w/wah

|-----------------------5s3-3h5-3-2-0-----------------------5-8-5-|
|---5s3---3---3h5-3-------------------3---3---------------8-------|
|-7-----5---5-------5-2-----------------5---5-2-------2-5---------|
|-7---------------------------------------------5-2-5-------------|
|-----------------------------------------------------------------|
|-----------------------------------------------------------------|

|---5h8-5-12p10----10----10-------10----10-------10----10-------10----|
|-8-------------13----13----13-13----13----13-13----13----13-13----13-|
|---------------------------------------------------------------------|
|---------------------------------------------------------------------|
|---------------------------------------------------------------------|
|---------------------------------------------------------------------|

|-10---------------------5-------------------------------------------5-|
|----13-8h10p8-5-------5---5-----------------------------5-----8-------|
|----------------7-5-7-------7-5-7---7-5-----5-----7-------------------|
|----------------------------------5-----5-7---5-7---5-7---5-7---5-7---|
|----------------------------------------------------------------------|
|----------------------------------------------------------------------|

|-----5h8-5-8h10-8----8h10-8----8h10-8----8h10-8---------s14-12-11-10-|
|------------------10--------10--------10--------10-8-10--------------|
|---------------------------------------------------------------------|
|-5-7-----------------------------------------------------------------|
|---------------------------------------------------------------------|
|---------------------------------------------------------------------|

|----------------------------------------------------------------------|
|-13-10----13----10--5------------------5------------------------------|
|-------12----12-------7-5-------5--------7-5------5-----------5---5h7-|
|--------------------------7-5-7---7-5-------7-5-7---7-5---5-7---7-----|
|--------------------------------------------------------7-------------|
|----------------------------------------------------------------------|

|---3h5p3---------------------------------------------------------------|
|-5-------3h5p3---3h5p3---3h5p3---3h5p3---3h5p3---3h5p3---3---3---------|
|---------------5-------5-------5-------5-------5-------5---5---5-2---2-|
|-------------------------------------------------------------------5---|
|-----------------------------------------------------------------------|
|-----------------------------------------------------------------------|

|-------------5-5-5-3-----------5-5-5-3---------------5-5-5-3---------|
|-----5-3-----5-5-5-5-3h5p3-----5-5-5-5-3h5p3---------5-5-5-3h5p3-----|
|-5-2-----5-2---------------5-2---------------5-2-5-2-------------5-2-|
|---------------------------------------------------------------------|
|---------------------------------------------------------------------|
|---------------------------------------------------------------------|

|-5-5-5-3---------------|
|-5-5-5-5-3h5p3---------|
|---------------5-2-0-5-|
|-----------------------|
|-----------------------|
|-----------------------|


Outro

w/dist.
|--------------------------------|
|--------------------------------|
|--------------------------------|
|-7-7-7-7--10-10-10-10--5-5-5-5--|
|-7-7-7-7--10-10-10-10--5-5-5-5--|
|-5-5-5-5--8--8--8--8---3-3-3-3--|


15. Champion
Intro
e|----------------------------|
b|----------------------------|
g|------------------------3*--|
D|-0-0-0-10-0-8-0-2-3-2-3-----|
A|-0-0-0-10-0-8-0-2-3-2-3-----|
D|-0-0-0-10-0-8-0-2-3-2-3-----|


Part B
e|-------------------------------------------------------------------|
b|-------------------------------------------------------------------|
g|-------------------------------------------------------------------|
D|-0-0-0-0-0-0-0-0-0--0-0-0-0-0-0-0-0-1-0-0-0-0-0-0-0-0-0-0-0-0-0-1--|
A|-0-0-0-0-0-0-0-0-0--0-0-0-0-0-0-0-0-1-0-0-0-0-0-0-0-0-0-0-0-0-0-1--|
D|-0-0-0-0-0-0-0-0-0--0-0-0-0-0-0-0-0-1-0-0-0-0-0-0-0-0-0-0-0-0-0-1--|
pm . . . . . . . . .  . . . . . . . .   . . . . . . . . . . . . .  

Verses

e|-------------------|
b|-------------------|
g|-------------------|
D|-0-0-3-4-5-0-3-0-0-|
A|-0-0-3-4-5-0-3-0-0-|
D|-0-0-3-4-5-0-3-0-0-|



"You're World Champion Now!"
e|-------------|
b|-------------|
g|-------------|
D|-7\6\5-5-4-3-|
A|-5\4\3-5-4-3-|
D|-------5-4-3-|

Outro
e|---------------------------------------------------|
b|---------------------------------------------------|
g|---------------------------------------------------|
D|-0-0-5-6-7-0-3-4-5-0-3-0-0-0-0-0-0-0-0-0-0-0-0-0-0-|
A|-0-0-3-4-5-0-3-4-5-0-3-0-0-0-0-0-0-0-0-0-0-0-0-0-0-|
D|-0-0-------0-3-4-5-0-3-0-0-0-0-0-0-0-0-0-0-0-0-0-0-|
            
Submit corrections

comments powered by Disqus
↑ Back to top | Washya Tabs for Guide To Better Living. Lyrics for acoustic guitar and electric guitar. Tablatures and chords are parodies/interpretations of the original songs. You may use it for private study, scholarship, research or language learning purposes only