» » »

Washya, Grind Tabs (ver.1)

Artists:  A B C D E F G H I J K L M N O P Q R S T U V W X Y Z # 

Grind Tabs (ver.1)

Washya Tabs
 Rating:
4/5 (4 votes)
Grind lessons Tabs too difficult? Try these video lessons and learn fast
                
Tuning: Drop b (BF#BEG#C#)
Intro
B|------7h10p7h10p7h10p7h10-----5h8p5h8p5h8p5h8-|
F#|---------------------------------------------|
B|----------------------------------------------|
E|----------------------------------------------|
G#|-0-0---------------------0-0-----------------|
C#|-0-0---------------------0-0-----------------|
pm  . .                     . . 

Verses
B|------------------------------------------------------------------------|
F#|-----------------------------------------------------------------------|
B|------------------------------------------------------------------------|
E|---------------8-------------------------------------------11-11h12-----|
G#|------9--7-10---7-10---------9------7-7h8p7--------9-9-12----------12~-|
C#|-7-10----------------8--7-10---7-10---------9-7-10---------------------|

Chorus
B|------------------------------------------------------------------------|
F#|-------------------------------------------------------------------6~--|
B|-----------------------------------------------------------------34-----|
E|--5---------5-----------6-6----------9------7~---------------345--------|
G#|-3---------3-----------4-4-------5--7-9-10----777-3-5-0-345------------|
C#|---6-5-3-0---6-5-3\8-0-----6h7p5-5------------777-3-5-0----------------|
            
Submit corrections

comments powered by Disqus
↑ Back to top | Washya Tabs for Grind. Lyrics for acoustic guitar and electric guitar. Tablatures and chords are parodies/interpretations of the original songs. You may use it for private study, scholarship, research or language learning purposes only