» » »

Grand Design Tabs (ver.1)

Artists:  A B C D E F G H I J K L M N O P Q R S T U V W X Y Z # 

Grand Design Tabs (ver.1)

Washya
Rating:
0/5 (0 votes)

Tabs too difficult? Try these video lessons and learn fast.
                -----------------------------------------------------------------------------
                      Grand Design
-----------------------------------------------------------------------------
Drop B (BF#BEG#C#)
Intro
B|-------------------------------------------------------------------|
F#|------------------------------------------------------------------|
B|-------------------------------------------------------------------|
E|---------------------------------5---4---2-------4-----------------|
G#|----4---5---4---2---5---4---2---------------5-------4---5---4---2-|
C#|-22---2---2---2---2---2---2---2---2---2---2---2---2---2---2---2---|
pm  ..   .   .   .   .   . . .   . . .   .   . . .   . . .   . .     

Verses
B|------------------------------------------------------------------------|
F#|-----------------------------------------------------------------------|
B|---------------------------------------------------------10p7-----------|
E|--------------------------------------------------------------10p7------|
G#-------------------------------------------------------------------9----|
C#|-000-0-0000-000-0-0000-000-0-0000-000-0-0000-000-0-0000--------------7-|
pm  ... . .... ... . .... ... . .... ... . .... ... . .... 

Chorus
B|--------------------------------------------------------------------------|
F#|-------------------------------------------------------------------------|
B|--------------------------------------------------------------------------|
E|------------------------------------------------5-----------4-------------|
G#|-----------3-----------5-----------6-----------3-----------2-1h2p1p0h1p0-|
C#|-0000-00-0-3-0000-00-0-5-0000-00-0-6-0000-00-0---0000-00-0---1h2p1p0h1p0-|
pm .... .. .   .... .. .   .... .. .   .... .. .   .... .. .   . . . . . . 

Solo (play very fast)
B|----------------------------------------------13~-|
F#|-------------------------------------9-11-12-----|
B|--------------------------6-8-9-6-8-9-------------|
E|--------------5-7-8-5-7-8-------------------------|
C#|-5-7-8-5-7-8-------------------------------------|
G#|-------------------------------------------------|

B|-13h18p13h17p13h18p13h17-17b-17----17-16-15----15----------------19-17-16-|
F#|-------------------------------17----------17----16-------15-16----------|
B|-----------------------------------------------------15-16----------------|
E|--------------------------------------------------------------------------|
G#|-------------------------------------------------------------------------|
C#|-------------------------------------------------------------------------|

B|-19~-21-22-21----21-------------------22----21----22-19h22p21p19h22-22~-|
F#|--------------22----22-21-22-21-19-19----19---19-----------------------|
B|------------------------------------------------------------------------|
E|------------------------------------------------------------------------|
G#|-----------------------------------------------------------------------|
C#|-----------------------------------------------------------------------|
            
Tabs too difficult? Try these video lessons and learn fast.


comments powered by Disqus
↑ Back to top | Tablatures and chords are parodies/interpretations of the original songs. You may use it for private study, scholarship, research or language learning purposes only