» » »

Fucking You Over Tabs (ver.1)

Artists:  A B C D E F G H I J K L M N O P Q R S T U V W X Y Z # 

Fucking You Over Tabs (ver.1)

Washya
Rating:
0/5 (0 votes)

Hard to play? Try these video lessons and learn fast.
                -----------------------------------------------------------------------------
-----------------------------------------------------------------------------
Tuning: D Tuning (FADCGD)
Intro
F|-----------------------|
A|-----------------------|
D|-----------------------|
G|-----7-----4-----------|
C|-----5-----2-----5---8-|
D|-000---000---000-3-0-6-|
PM ***   ***   ***   * 

Verses
F|---------------------------------------|
A|---------------------------------------|
D|---------------------------------------|
G|---------------------------------------|
C|-----5-----8---------6-----4---------3-|
D|-000---000---000-3-0---000---000-1-0---|
PM ***   ***   ***   *   ***   ***   * 

Chorus
F|----------------------------------------------|
A|----------------------------------------------|
D|----------------------------------------------|
G|-----7/9-12\11-5/7-----8\7-3/5-----121212\11--|
C|-----5/7-10\9--3/5-3/5-6\5-1/3-7/9-101010\9---|
D|-000---------------1/3---------5/7------------|
PM *** 
            
Hard to play? Try these video lessons and learn fast. | Correct




comments powered by Disqus
↑ Back to top | Tablatures and chords are parodies/interpretations of the original songs. You may use it for private study, scholarship, research or language learning purposes only