» » »

Frenetic Tabs (ver.1)

Artists:  A B C D E F G H I J K L M N O P Q R S T U V W X Y Z # 

Frenetic Tabs (ver.1)

Washya
Rating:
0/5 (0 votes)

Tabs too difficult? Try these video lessons and learn fast.
                -----------------------------------------------------------------------------
-----------------------------------------------------------------------------
Tuning: Standard (EBGDAE)
Intro
E|------------------------------------------------------------|
B|------------------------------------------------------------|
G|------------------------------------------------------------|
D|-5/7777--9/10-10\-9-9/10-10\-9-7--------10-9-10-9-10-9------|
A|-3/5555--7/-8--8-\7-7/-8--8-\7-5-5/7777-8--7--8-7--8-7-9/11-|
E|---------------------------------3/5555----------------7/-9-|

Verses
E|--------------------------------------------|
B|--------------------------------------------|
G|--------------------------------------------|
D|-------------------------5\4-5\4-5\4--------|
A|-2-3333-6-5-6-5-3-2-5555-3\2-3\2-3\2-3/5555-|
E|-0-1111-4-3-4-3-1-0-3333-------------1/3333-|

Chorus
E|--------------------------------------------------------|
B|--------------------------------------------------------|
G|--------------------------------------------------------|
D|-5-----------------3-333-------------7/99-8p7-----------|
A|-3-5---7-777-----3-1-111---1-2-2-222-5/77-----9-7-9-999-|
E|-----7-5-555-3-5---------3-----0-000--------------7-777-|
PM   * *       * * *       * * *            ***** *  
            
Tabs too difficult? Try these video lessons and learn fast.


comments powered by Disqus
↑ Back to top | Tablatures and chords are parodies/interpretations of the original songs. You may use it for private study, scholarship, research or language learning purposes only