» » »

Washya, Fire Against Fire Tabs (ver.1)

Artists:  A B C D E F G H I J K L M N O P Q R S T U V W X Y Z # 

Fire Against Fire Tabs (ver.1)

Washya Tabs
 Rating:
4/5 (4 votes)
Fire Against Fire lessons Tabs too difficult? Try these video lessons and learn fast
                -----------------------------------------------------------------------------
-----------------------------------------------------------------------------
Tuning: Standard (ebgDAE)
Intro   D
e|---2-------------2-----------2-|
b|-----3-----2---------2h3p2---3-|
g|-------2h3---3p2---3-------2-2-|
D|-------------------------------|
A|-------------------------------|
E|-0-----------------------------|x5
PM .                              

Main Riff/Verses
e|--------------------------|
b|--------------------------|
g|--------------------------|
D|------5------4------------|
A|------3------2------5-2-3-|
E|-0000---0000---0000-3-0-1-|
PM ....   ....   ....      

Chorus
e|-----------------------------|
b|-----------------------------|
g|-----------------------------|
D|-2-4-2-----------------------|
A|-0-2-0-5\4------2-3-2-5------|
E|-------3\222222-0-1-0-333333-|
PM          .....        ..... 

Interlude
e|---------------------------------|
b|---------------------------------|
g|---------------------------------|
D|---------------------------------|
A|-2-3-4-5-2-3-5-2-5-5-6-8-5-5-6-4-|
E|-0-1-2-3-0-1-3-0-3-3-4-6-3-3-4-2-|x2
PM . . .   . . .   . . .   . . .     

Solo (Extremely Fast)
e|-------------------------------------------6-8~--|
b|-------------------------------4-6-----6-4-------|
g|-----------------------2---4-6-----4-6-----------|
D|-----2---4-2---2---2-4---4-----------------------|
A|-2-4---4-----4---4-------------------------------|
E|-------------------------------------------------|
PM . . . . . . . . . . . . . . .         

e|-7-8-10-8-7----8-7----------------------------------------------|
b|------------10-----10-8-7-8-7---8-7-----------------------------|
g|------------------------------9-----9-----------------7-8-7---7-|
D|--------------------------------------8-7-------7-9-9-------9---|
A|------------------------------------------9-7-9-----------------|
E|----------------------------------------------------------------|

e|----------------------------------------------------8-7-------------|
b|-----------------------------------------------7-10-----10^-10^-10^-|
g|-9p7-----6-7-9-7-6---7-6-----7-6-9-7-6-----7-9----------------------|
D|-----9-8-----------9-----8-9-----------8-9--------------------------|
A|--------------------------------------------------------------------|
E|--------------------------------------------------------------------|

e|-----------------------------/15p12----15p12h14p12----15p12----15p12h----|
b|-10-8-7-8-7-------------------------14-------------14-------14--------14-|
g|------------9-7---7-9-9-7------------------------------------------------|
D|----------------9---------9~---------------------------------------------|
A|-------------------------------------------------------------------------|
E|-------------------------------------------------------------------------|

e|-17p14----17p14h16p14----17p14----17p15h16p14-----------------|
b|-------15-------------15-------15-------------15-17^-17^-17^--|
g|--------------------------------------------------------------|
D|--------------------------------------------------------------|
A|--------------------------------------------------------------|
E|--------------------------------------------------------------|

e|----19-22-20-19-20-19-17-19-17-15-17-15-14-15-14-12-14-12-10-12-10-9-|
b|-17------------------------------------------------------------------|
g|---------------------------------------------------------------------|
D|---------------------------------------------------------------------|
A|---------------------------------------------------------------------|
E|---------------------------------------------------------------------|

e|-7------------------------------------------------------------------------|
b|---10-8-7---7-8-7-----------------------------------6---------------------|
g|----------9-------9-7---------------------7-6-7-9-7---7-9^99999999--------|
D|----------------------9-7-9-9---7---7-6-9--------------------------5h7p5~-|
A|------------------------------9---9---------------------------------------|
E|--------------------------------------------------------------------------|
            
Submit corrections

comments powered by Disqus
↑ Back to top | Washya Tabs for Fire Against Fire. Lyrics for acoustic guitar and electric guitar. Tablatures and chords are parodies/interpretations of the original songs. You may use it for private study, scholarship, research or language learning purposes only