» » »

Washya, Execution Tabs (ver.1)

Artists:  A B C D E F G H I J K L M N O P Q R S T U V W X Y Z # 

Execution Tabs (ver.1)

Washya Tabs
 Rating:
4/5 (4 votes)
Execution lessons Tabs too difficult? Try these video lessons and learn fast
1
                -----------------------------------------------------------------------------
-----------------------------------------------------------------------------

Tuning: Drop B (BF#BEG#C#) 
Intro
B|--------------------------------------------|
F#|-------------------------------------------|
B|--------------------------------------------|
E|--------5\4-------8\7-----------------------|
G#|-------3\2-------6\5---6h9p6h9-3h6p3h6p3-2-|
C#|-0-1-0-----3-5-0-----0---------------------|
pm  . . .     . . .     . 

Verses
B|-----------------------------------------------------------------------|
F#|----------------------------------------------------------------------|
B|-----------------------------------------------------------------------|
E|-----------------------------------------------------------------------|
G#|--------3------------------------5-3----------------------------------|
C#|-00-6-5---6-5-3-5-6--000-000-6-5-----5-6-8-3-5-6-000-000-0-3-0-3-2-1--|
pm  ..                  ... ...                     ... ... 

Chorus
B|------------------------------------------------------------------|
F#|-----------------------------------------------------------------|
B|--------------------------------------------7-------------7-------|
E|-----------5----8-6---------------------------7-------------7-----|
G#|-00-22-22-3--9-----9-6\3---3-333-11-11---5--------5----5-------5-|
C#|-00-22-22----------------5-3-333-11-11-5--------5----5-------5---|
pm                                        . . . .  . .  . . . . . . 
            
Submit corrections

comments powered by Disqus
↑ Back to top | Washya Tabs for Execution. Lyrics for acoustic guitar and electric guitar. 1 Tablatures and chords are parodies/interpretations of the original songs. You may use it for private study, scholarship, research or language learning purposes only