» » »

End Of Time Tabs (ver.1)

Artists:  A B C D E F G H I J K L M N O P Q R S T U V W X Y Z # 

End Of Time Tabs (ver.1)

Washya
Rating:
0/5 (0 votes)

Hard to play? Try these video lessons and learn fast.
                
Tuning: Standard
Intro
e|---------------------------------------------------------------|
B|---------------------------------------------------------------|
G|---------------------------------------------------------------|
D|----------------------------------------------3-3-3-2----------|
A|-----------3b--------------------3b-----------3-3-3-2----------|
E|-3-1-1-3-1----3-1-1-0--3-1-1-3-1----3-1-1-0-1-1-1-1-0-1-1-0----|x2

Verse
e|----------------------------------------------------------------|
B|----------------------------------------------------------------|
G|----------------------------------------------------------------|
D|-----------------------------5-5-3-3-5-3-5b-6-6-5-5-3-----------|
A|-----------------------------5-5-3-3-5-3----6-6-5-5-3-----------|
E|-3-3-1-1-3-1-4-3-1-3-3-1-1-0-3-3-1-1-3-1----4-4-3-3-1-----------|
pm . . . . . . . . . . . . . . . . . . . .    . . . . . 

Chorus
e|------------------------------------------------------------------------|
B|------------------------------------------------------------------------|
G|---------------------3-3-3-3-x-5-5-5-5-x-7-7-7-7-7-7-7-x----------------|
D|-3-3-3-3-x-5-5-5-5-x-3-3-3-3-x-5-5-5-5-x-7-7-7-7-7-7-7-x-7-7-7-5-5-3-2--|
A|-3-3-3-3-x-5-5-5-5-x-1-1-1-1-x-3-3-3-3-x-5-5-5-5-5-5-5-x-7-7-7-5-5-3-2--|
E|-1-1-1-1-x-3-3-3-3-x-------------------------------------5-5-5-3-3-1-0--|

Solo
e|-12b--------------------15-12-15-------------------15-17~---|
B|-12b-14~-------12-15-12----------12-15-------15-12----------|
G|---------12-15-------------------------14-12----------------|
D|------------------------------------------------------------|
A|------------------------------------------------------------|
E|------------------------------------------------------------|

Verse
e|----------------------------------------------------------------|
B|----------------------------------------------------------------|
G|----------------------------------------------------------------|
D|-----------------------------5-5-3-3-5-3-5b-6-6-5-5-3-----------|
A|-----------------------------5-5-3-3-5-3----6-6-5-5-3-----------|
E|-3-3-1-1-3-1-4-3-1-3-3-1-1-0-3-3-1-1-3-1----4-4-3-3-1-----------|
pm . . . . . . . . . . . . . . . . . . . .    . . . . . 

Chorus
e|------------------------------------------------------------------------|
B|------------------------------------------------------------------------|
G|---------------------3-3-3-3-x-5-5-5-5-x-7-7-7-7-7-7-7-x----------------|
D|-3-3-3-3-x-5-5-5-5-x-3-3-3-3-x-5-5-5-5-x-7-7-7-7-7-7-7-x-7-7-7-5-5-3-2--|
A|-3-3-3-3-x-5-5-5-5-x-1-1-1-1-x-3-3-3-3-x-5-5-5-5-5-5-5-x-7-7-7-5-5-3-2--|
E|-1-1-1-1-x-3-3-3-3-x-------------------------------------5-5-5-3-3-1-0--|


Verse
e|----------------------------------------------------------------|
B|----------------------------------------------------------------|
G|----------------------------------------------------------------|
D|-----------------------------5-5-3-3-5-3-5b-6-6-5-5-3-----------|
A|-----------------------------5-5-3-3-5-3----6-6-5-5-3-----------|
E|-3-3-1-1-3-1-4-3-1-3-3-1-1-0-3-3-1-1-3-1----4-4-3-3-1-----------|
pm . . . . . . . . . . . . . . . . . . . .    . . . . . 

Outro
e|------------------------------------------------------------------|
B|------------------------------------------------------------------|
G|------------------------------------------------------------------|
D|----------------------------------------------------------------2-|
A|-----------------------------------------------9~---------------2-|
E|-3-3-0-1-2-1-3-3-5-5-3-3-1-1-0-0-1-1-5-5-7-7-9----8-7-6-5-3-2-1-0-|
pm . . . . . . . . . . . . . . . . . . . . . . .    . . . . . . . 
************************************

| /   slide up
| \   slide down
| h   hammer-on
| p   pull-off
| ~   vibrato
| +   harmonic
| x   Mute note
| b   Bend
| pb  Pre-bend
| br  Bend release
| pbr Pre-bend release
| brb Bend release bend

************************************
            
Hard to play? Try these video lessons and learn fast. | Correct




comments powered by Disqus
↑ Back to top | Tablatures and chords are parodies/interpretations of the original songs. You may use it for private study, scholarship, research or language learning purposes only