» » »

Emulsify Tabs (ver.1)

Artists:  A B C D E F G H I J K L M N O P Q R S T U V W X Y Z # 

Emulsify Tabs (ver.1)

Washya
Rating:
0/5 (0 votes)

Hard to play? Try these video lessons and learn fast.
                -----------------------------------------------------------------------------
-----------------------------------------------------------------------------
Tuning: Standard (EBGDAE)
Intro
E|-------------------------------------|
B|-------------------------------------|
G|-----5-4-2---2---4-----5-4-2---2-----|
D|---4-------4---2-----4-------4-----2-|
A|-2-----------------2-------------5---|
E|-------------------------------------|

Verses
E|--------------------------------------|
B|--------------------------------------|
G|--------------------------------------|
D|----5---5----55---555----55---5----55-|
A|-xx-3-x-3-xx-33-x-333-xx-33-x-3-xx-33-|
E|-xx---x---xx----x-----xx----x---xx----|

Chorus
E|-------------------------------------------------------------------------|
B|-------------------------------------------------------------------------|
G|-------------------------------------------------------------------------|
D|-------------------------------------------------------------------------|
A|-55-77-33-55-77-99-55-77-10-10-10-10-10-10-10/12121212121212-99-77-55-77-|
E|-33-55-11-33-55-77-33-55-8--8--8--8--8--8--8-/10101010101010-77-55-33-55-|
            
Hard to play? Try these video lessons and learn fast. | Correct




comments powered by Disqus
↑ Back to top | Tablatures and chords are parodies/interpretations of the original songs. You may use it for private study, scholarship, research or language learning purposes only