» » »

Electric Connector Tabs (ver.1)

Artists:  A B C D E F G H I J K L M N O P Q R S T U V W X Y Z # 

Electric Connector Tabs (ver.1)

Washya
Rating:
0/5 (0 votes)

Hard to play? Try these video lessons and learn fast.
                ------------------------------------------------------------------------------
------------------------------------------------------------------------------
Tuning: Standard (EBGDAE)
E|------------------------------|
B|------------------------------|
G|------------------------------|
D|------------------------------|
A|-2222-2-2-2-22--2222-2-2-2-22-|
E|-0000-0-0-0-00--0000-0-0-0-00-|
PM **** * * * **  **** * * * **

Verses
E|---------0-----------------0-------------------|
B|-----------3-----------------3-----------------|
G|-------3-----0-----------------0---------------|
D|-------------------3-----2---------4-----------|
A|---2-------------3-----2---------2---5-4-------|
E|-0---0---------1-----0-------------------3p2p0-|

Chorus
E|----------------------------------------------|
B|----------------------------------------------|
G|----------------------------------------------|
D|--------3-------7\5-------------7-------5-----|
A|-22-5\4-1-8\7\5-5\3-5/7-22-10\9-5-7-7/8-3-7-5-|
E|-00-3\2---6\5\3-----3/5-00-8\-7---5-5/6---5-3-|
PM **                     **                  
            
Hard to play? Try these video lessons and learn fast. | Correct




comments powered by Disqus
↑ Back to top | Tablatures and chords are parodies/interpretations of the original songs. You may use it for private study, scholarship, research or language learning purposes only