» » »

Washya, Drag Me Too Hell Tabs (ver.1)

Artists:  A B C D E F G H I J K L M N O P Q R S T U V W X Y Z # 

Drag Me Too Hell Tabs (ver.1)

Washya Tabs
 Rating:
4/5 (4 votes)
Drag Me Too Hell lessons Tabs too difficult? Try these video lessons and learn fast
                -----------------------------------------------------------------------------
-----------------------------------------------------------------------------
Drop C Tuning (DAFCGC)
Intro
D|--------0-------------------------|
A|----------------------------------|
F|----------------------------------|
C|-----0----0---------2-----3-2---2-|
G|---0----------0-2h3-----3-----2---|
C|-0----------0---------3-----------|

Verses
D|-----0-----2-0-----------------|
A|---------2---------------------|
F|---0---------------------------|
C|---------------2-----5-3-------|
G|-------------------5-----2-----|
C|-0-----0---------5---------2-0-|

Chorus
D|-----------------------------------------|
A|-----------------------------------------|
F|-----------------------------------------|
C|---------2-------------------------------|
G|-----2h3---0-3p2p0-33-5---------11-1-1-3-|
C|-0-0---------------33-5-0-5p3p0-11-1-1-3-|
PM . .                    . ..... 
            
Submit corrections

comments powered by Disqus
↑ Back to top | Washya Tabs for Drag Me Too Hell. Lyrics for acoustic guitar and electric guitar. Tablatures and chords are parodies/interpretations of the original songs. You may use it for private study, scholarship, research or language learning purposes only