» » »

Washya, Digitised Tabs (ver.1)

Artists:  A B C D E F G H I J K L M N O P Q R S T U V W X Y Z # 

Digitised Tabs (ver.1)

Washya Tabs
Rating:
0/5 (0 votes)
Digitised lessons Tabs too difficult? Try these video lessons and learn fast
                -----------------------------------------------------------------------------
-----------------------------------------------------------------------------
Tuning: Drop C (DAFCGC)
Intro
D|------------------------------------------|
A|------------------------------------------|
F|------------------------------------------|
C|-00-3p2-0h3-00-6-5-3--00-3p2-0h3-00-2-3-1-|
G|-00-----0h3-00-6-5-3--00-----0h3-00-2-3-1-|
C|-00-----0h3-00-6-5-3--00-----0h3-00-2-3-1-|

Verses
D|----------------------------------------------------------------|
A|----------------------------------------------------------------|
F|----------------------------------------------------------------|
C|-----------4-----------5---------------10-6---10-6--------------|
G|---8-4-5-8-----8-4/6-9-------5-----5/7------7-----------3-1h3p1-|
C|-5-----------5-----------6-9---6-9-----------------/4-7---1h3p1-|
pm                                                          . . . 

Chorus
D|-------------------------------------------------------------------------|
A|-------------------------------------------------------------------------|
F|-------------------------------------------------------------------------|
C|-3333-0-5-55-0-5555777766665555-0-000-2-222-4444-5555-2222-3333-66-11-00-|
G|-1111-0-3-33-0-3333333333333333-0-000-2-222-2222-3333-2222-3333-66-11-00-|
C|-1111-0------0-3333333333333333-0-000-2-222-----------2222-3333-66-11-00-|

Guitar Solo
D|-12t18p15p12t19p15p12-10t16p12p10t16p12p10-6t12p9p6t12p9p6-4h5p4-------|
A|-----------------------------------------------------------------2-4---|
F|-----------------------------------------------------------------------|
C|-----------------------------------------------------------------------|
G|-----------------------------------------------------------------------|
C|-----------------------------------------------------------------------|

D|-----------------------------------|
A|-2---2-----------------------------|
F|---4---4-3-------2-----------------|
C|-----------2-4-2---4---------0-----|
G|---------------------3-2-0-2---2~--|
C|-----------------------------------|

D|--/9h13p9----9-9h13p9----9-9h13p9----9-9h13p9-------11h15p11------|
A|----------11----------11----------11----------11/13----------13---|
F|------------------------------------------------------------------|
C|------------------------------------------------------------------|
G|------------------------------------------------------------------|
C|------------------------------------------------------------------|

D|-11h15p11----11h15p11-------13h17p13----13h17p13----13/19-19~-|
A|----------13----------13/15----------15----------15-----------|
F|--------------------------------------------------------------|
C|--------------------------------------------------------------|
G|--------------------------------------------------------------|
C|--------------------------------------------------------------|
            
Submit corrections

comments powered by Disqus
↑ Back to top | Washya Tabs for Digitised. Lyrics for acoustic guitar and electric guitar. Tablatures and chords are parodies/interpretations of the original songs. You may use it for private study, scholarship, research or language learning purposes only