» » »

Washya, Deceiver Tabs (ver.1)

Artists:  A B C D E F G H I J K L M N O P Q R S T U V W X Y Z # 

Deceiver Tabs (ver.1)

Washya Tabs
 Rating:
4/5 (4 votes)
Deceiver lessons Tabs too difficult? Try these video lessons and learn fast
                
Tuning: Drop D
Intro
e|---------------------------------------------------------|
B|---------------------------------------------------------|
G|-------------7-7-7-7-------------------------------------|
D|-2-2-2-5-5-5-7-7-7-7-8-7-5-5-5-3-3-3-2-2-2-3-2-2-2-0-0-0-|
A|-2-2-2-5-5-5-5-5-5-5-8-7-5-5-5-3-3-3-2-2-2-3-2-2-2-0-0-0-|
D|-2-2-2-5-5-5---------8-7-5-5-5-3-3-3-2-2-2-3-2-2-2-0-0-0-|


Verses
e|---------------------------------------------------------------------|
B|---------------------------------------------------------------------|
G|---------------------8-8-8-10-10-10-10-10-7-7-7-7--------------------|
D|-2-2-2-5-5-5-8-8-8-8-8-8-8-10-10-10-10-10-7-7-7-7-5-5-3-3-3-3-0-0-0--|
A|-2-2-2-5-5-5-8-8-8-8-6-6-6-8--8--8--8--8--5-5-5-5-5-5-3-3-3-3-0-0-0--|
D|-2-2-2-5-5-5-8-8-8-8------------------------------5-5-3-3-3-3-0-0-0--|


Guitar Solo
e|-------------------------------------------------------------19b-21b~---|
B|------------------------------------------------------15s17b------------|
G|---------------------------------14----14----14s15h17-------------------|
D|---7---7---7---7-9b~---7s9h10s12----12----12----------------------------|
A|-9---9---9---9-------9--------------------------------------------------|
D|------------------------------------------------------------------------|
            
Submit corrections

comments powered by Disqus
↑ Back to top | Washya Tabs for Deceiver. Lyrics for acoustic guitar and electric guitar. Tablatures and chords are parodies/interpretations of the original songs. You may use it for private study, scholarship, research or language learning purposes only