» » »

Washya, Death Is A Surprise Party Tabs (ver.1)

Artists:  A B C D E F G H I J K L M N O P Q R S T U V W X Y Z # 

Death Is A Surprise Party Tabs (ver.1)

Washya Tabs
Rating:
0/5 (0 votes)
Death Is A Surprise Party lessons Tabs too difficult? Try these video lessons and learn fast
                -----------------------------------------------------------------------------
-----------------------------------------------------------------------------
Tuning: Standard (ebgDAE)
Intro (play EXTREMELY fast)
e|---------------------------------------------|
b|---------------------------------------------|
g|---------------------------------------------|
D|---------------------------------------------|
A|-2-3p1p0---1p0-2---1p0-------2-3p1p0---1p0-2-|
E|-0-------3-----0-3-----3p1p0-0-------3-----0-|
PM   ***** * ***   * *** *****   ***** * *** 

Lead 1
e|-----------------------------|
b|-----------------------------|
g|--------------------------9~-|
D|-----2~-4p2h4/5p4/5/7p6h7----|
A|-2h4-------------------------|
E|-----------------------------|

Verses
e|---------------------------------------------------------|
b|---------------------------------------------------------|
g|---------------------------------------------------------|
D|-3-3-3-3-3-3-3-2-2-2-2-2-2-1-1-1-1-1-1-1-1-1-1-1-1-1-1-2-|
A|-2-2-2-2-2-2-2-1-1-1-1-1-1-1-1-1-1-1-1-1-2-2-2-2-2-2-2-2-|
E|-0-0-0-0-0-0-0-0-0-0-0-0-0-0-0-0-0-0-0-0-2-2-2-2-2-2-2-0-|
PM * * * * * * * * * * * * * * * * * * * * * * * * * * * *  

Lead 2
e|---7---7---7\5-5h6p5h6p5h6p5h6h8p6p5h6h8/10-12~-|
b|---7---7---7\5----------------------------------|
g|-5---5---5--------------------------------------|
D|------------------------------------------------|
A|------------------------------------------------|
E|------------------------------------------------|

Chorus
e|---------------------------|
b|---------------------------|
g|---------------------------|
D|---------------2-----------|
A|-----4---2-5-4-------222-3-|
E|-0-2---5---------5-4-000-1-|
PM * * * * * * *                
            
Submit corrections

comments powered by Disqus
↑ Back to top | Washya Tabs for Death Is A Surprise Party. Lyrics for acoustic guitar and electric guitar. Tablatures and chords are parodies/interpretations of the original songs. You may use it for private study, scholarship, research or language learning purposes only